Cifras para Violão e Guitarra » L »León Larregui » Brillas (Tab)

Brillas
León Larregui

Letras, cifras e tablaturas para violão, guitarra, piano, ukulele e baixo

  • A - C#m x4
    
        A                          C#m
    Nos dimos todo lo que se nos dio
        A                          C#m
    Nos dimos todo eso y mucho mas
        Bm         C#m        E         Esus4
    para después reconocernos otra vez
    
    E
    
        A                        C#m
    Nos damos todo lo que se nos da
        A                        C#m
    Nos damos todo eso y mucho mas
        Bm       C#m        E         Esus4
    amanecer colgado de tu labios
    
    E
    
    
  • POR FIN ME PUSE A TRABAJAR Y SAQUE LA CANCION,
    PARA QUE VEAN QUE ESOS COVERS MALETAS DE YOUTUBE
    ESTAN MAL
    
    INTRO
    G|---------------------------|
    D|---------------------------|
    A|-------4-7/4-------4-7/4---|
    E|-5-5h7-------5-5h7---------|
    
    VERSO "nos dimos..."
    G|---------------------------|
    D|---------------------------|
    A|-------4-7/4-------4-7/4---|
    E|-5-5h7-------5-5h7---------|
    
    "para despues..."
    G|------------------------------------|
    D|------------------------------------|
    A|-2~-------------4~----------7~7777--|
    E|------------------------------------|
    
    VERSO II"nos damos"
    G|---------------------------|
    D|---------------------------|
    A|-------4-7/4-------4-7/4---|
    E|-5-5h7-------5-5h7---------|
    
    "amanecer..."
    G|----------------------------------------|
    D|-----------------------------9----------|
    A|-2~-----------4~---------7~----77-7-----|
    E|-----------------------------------7765-|
    
    CORO
    G|----------------------------------|
    D|----------------------------------|
    A|---7-----7~57789--
  • +
    ¡Colabora con nosotros!
    Envíanos tu versión de esta canción
  • Tutorial
    HD
    Como tocar BRILLAS en guitarra - Leon Larregui [Tutorial Somos Posers]
    10:17
  • Tutorial
    HD
    Como tocar Brillas de Leon Larregui en Guitarra (HD)
    Tutorial Acordes
    4:33
  • Tutorial
    HD
    Como tocar "Brillas" de León Larregui - Tutorial Guitarra (Acordes)
    HD
    6:44
  • Tutorial
    HD
    Brillas - León Larregui [Bass cover con tabs]
    4:05

Letra de Brillas
Nos dimos todo lo que se nos dio
Nos dimos todo eso y mucho mas
para después reconocernos otra vez
Nos damos todo lo que se nos da
Nos damos todo eso y mucho mas
amanecer colgado de tu labios
Ooh! brillas, y brillas tan lindo
y brillamos juntos entre pestañas
divina, divina sonrisa
abrazo de luna, de luna llena
Aaah aaaah aaaah
Aaah aaaah aaaah
Aaah aaaah aaaah
Aaah aaaah aaaah
Aaaaah
Nos dimos todo lo que se nos dio
Nos dimos todo eso y mucho mas
para después reconocernos otra vez
Ooh! brillas, y brillas tan lindo
y brillamos juntos entre pestañas
divina, divina sonrisa
abrazo de luna, de luna llena
y así juntitos los dos
y así lo que se nos dio
y así juntitos los dos
y así lo que se nos da
Aaah aaaah aaaah
Aaah aaaah aaaah x5
"Para Michelle ♥"




[Brillas acordes][Brillas chords]
© LaCuerda.net · notícia legal · privacidade · es · en · pt · contato
DINAMICO