Cifras para Violão e Guitarra » L »Líbido » Fragil (Tab)

Fragil
Líbido

Letras, cifras e tablaturas para violão, guitarra, piano, ukulele e baixo

  •   E-----0-------  E-----0------
      B-----5-------  B-----5------
      G-----4-------  G-----4------
      D-----5-------  D-----5------
      A-----4-------  A-----3------
      E-------------  E------------
    
    
    intro: (MIm-LAm -MIm -DO )x2
    
    Fràgil no se ha vuelto fàcil mandarlo al olvido a un frio cañòn
    MIm        LAm         MIm      DO           MIm       LAm   SI
    
    tierna y asesina perfecta de mis ganas de odiarte de morirme en tu voz
    MIm         LAm       MIm       DO           MIm        LAm        SI
    
    en una dulce pesadilla
           1    2
    
    MIm - LAmm MIm Do
    
  • intro:MIm-DO -MIm
    fràgil no se ha vuelto fàcil mandarlo al olvido a un fri cañòn 
    MIm    DO5             MIm   DO5                 SI 
    tierna y asesina perfecta de mis ganas de olvidarte de morirse en tu vo
    MIm    DO5       MIm      DO5          MIm          SI 
    en una dulce pesadilla
    MIm
    cautivo en mi cuerpo rendido de buscar el sentido que partistes en dos
    MIm     DO5          MIm     DO5       MIm        SI 
    y facil tengo mil razones para extrañar tu las pudiste olvidar 
    MIm     DO5       MIm     DO5           SI 
    y enciendo mis luces de dia porque espero todavia
    MIm        DO5          SI5 MIm
    
    1.grito al cielo tu nombre y el viento lo esconde en su vanidad sigo siendo
      MIm            RE        DO          SOL        MIm                     
      el mendigo que espera rendido gotas de humanidad 
      RE         DO         SOL              MIm
      gotas de humanidad
    
    
  •   E5     Em      Am      Em  Am
    e:-------0-|-0-0-0-0-|-0-0-0-0-|
    B:-------0-|-0-0-1-1-|-1-0-0-1-|
    G:-9-9-9-0-|-0-0-2-2-|-2-0-0-2-|
    D:-9-9-9-2-|-2-2-2-2-|-2-2-2-2-| *entra la bateria y se toca riff 2
    A:-7-7-7-2-|-2-2-0-0-|-0-2-2-0-|
    E:-------0-|-0-0-0-0-|-0-0-0-0-|
    
    -Riff 2:
       A#5             A5    G5   E5    D5    E5
    e:-------------|------------|---------|---------|
    B:-------------|------------|---------|---------|
    G:-15-15-15-15-|-x-14-14-12-|-9-9-9-7-|-7/9-9-9-|
    D:-15-15-15-15-|-x-14-14-12-|-9-9-9-7-|-7/9-9-9-|
    A:-13-13-13-13-|-x-12-12-10-|-7-7-7-5-|-5/7-7-7-|
    E:-------------|------------|---------|---------|
    
    
    
    Verso 1:
    
  • Intro
    
    Inicia con la guitarra
    
    E---0--------------------------
    A--------------7---7-----------
    D---------------7-----9--------
    G------------------------------
    
    E---0000--5555-----------------
    A---------------7777--3333-----
    D------------------------------
    G------------------------------
    
    Verso
    
    E---0000--5555--0000--------0000--5555-------------- x2
    A---------------------3333--------------22222222----
    D---------------------------------------------------
    G---------------------------------------------------
    
    En una dulce.....pesadilla
    
    E---------------------------
    A---44444444333333333-------
    D---------------------------
    G---------------------------
    
    E---0000--5555-----------------
    A---------------7777--3333-----
    D------------------------------
    G------------------------------
    
    Verso x2
    
    Pre-coro
    
    Y enciendo...... mis luces de día, porque espero todavía
    
    E-------------------------------------------------------
    A---44444444333333333-222222222-------------------------
    D-------------------
  • +
    ¡Colabora con nosotros!
    Envíanos tu versión de esta canción
  • Tutorial
    HD
    Frágil - LIBIDO (Solos)
    0:04
  • Tutorial
    HD
    Frágil - LIBIDO (acordes)
    0:04

Letra de Fragil
fràgil no se ha vuelto fàcil mandarlo al olvido a un fri cañòn
tierna y asesina perfecta de mis ganas de olvidarte de morirse en tu vo
en una dulce pesadilla
cautivo en mi cuerpo rendido de buscar el sentido que partistes en dos
y facil tengo mil razones para extrañar tu las pudiste olvidar
y enciendo mis luces de dia porque espero todavia
1.grito al cielo tu nombre y el viento lo esconde en su vanidad sigo siendo
el mendigo que espera rendido gotas de humanidad
gotas de humanidad
bueno eso es todo espero que la puedan sacar asta la otra y
que viva el rock nacional.




[Fragil acordes][Fragil chords]
© LaCuerda.net · notícia legal · privacidade · es · en · pt · contato
DINAMICO