Cifras para Violão e Guitarra » L »Líbido » No voy a verte más (Tab)

No voy a verte más
Líbido

Letras, cifras e tablaturas para violão, guitarra, piano, ukulele e baixo

  •     Bm                   A                 (4 veces creo)
    E|--2--------------------2----------------------|
    B|----3-5---3---2-3--------3-5---3---2-3--------|
    G|--------4---2----------------4---2------------|
    D|----------------------------------------------|
    A|----------------------------------------------|
    E|----------------------------------------------|
    
    
    
    Verso:
    
     D      Bm          G 
    No, no voy a verte más
      
        A          Bm   
    no pensare en ti 
                 
           G           
    me quitaste la ilusión
    
  •     Bm                   A/A5
    E|--2--------------------2----------------------|
    B|----3/5---3---2-3--------3/5---3---2-3--------|
    G|--------4---2----------------4---2------------|
    D|----------------------------------------------|
    A|----------------------------------------------|
    E|----------------------------------------------|
    
    G* hagaNlo HAcI...
    E-3
    B-3
    G-4
    D-5
    A-5
    E-3
    
    en el CAmBIo A/A5 HagAn El CAmbio AcAbANdO A...HAcI
    SuEnA meJOr
    VEan KuAlkIEr VIdEo de no Voy a verte mAs en VIvo
    y VEraN el CAmbio...en lA cancIon original
    
  • +
    ¡Colabora con nosotros!
    Envíanos tu versión de esta canción
  • Tutorial
    HD
    No voy a verte más - LIBIDO (tutorial pt1)
    3:25

Letra de No voy a verte más
Verso:
No, no voy a verte más

no pensare en ti

me quitaste la ilusión
ya no lucho por tu amor
Tu me has roto el corazón

partiste mi alma en dos

de los suelos me alzare

y otro amor encontrare
se que no es facil perder
y ahora me toco a mi
perdido en mis lagrimas
acariciare tu piel

tus besos yo los guardo en mi
ya no estas junto a mi
tu fuiste mi inspiración

un poema una canción
pero mi mente ya olvido
no hay rencores no hay dolor
tu indiferencia me toco el alma
tus labios me quitaron la miel
tus ojos me robaron la razón
se que no me olvidaras
que nadie te amara
como yo te ame
cuanto te llore
Final:
Si encuentran algun error por favor mandarme a mi e-mail que luego sera recompensado




[No voy a verte más acordes][No voy a verte más chords]
© LaCuerda.net · notícia legal · privacidade · es · en · pt · contato
DINAMICO