Cifras para Violão e Guitarra » L »Luis Miguel » Ahora te Puedes Marchar (Tab)

Ahora te Puedes Marchar
Luis Miguel

Letras, cifras e tablaturas para violão, guitarra, piano, ukulele e baixo

  •   E            C#m
    e----------------------------
    B----------------------------
    G----------------------------
    D-2-2---2-2------------------
    A------2-----2-4-4----4-4---2
    E--------------------4-------
    
    Riff 2
       E          C#m
    e-----------------------------
    B-----------------------------
    G-----------------------------
    D----------------------2-1----
    A--2------------4----------4--
    E----4-4-4---2h4--4-4---------
    
    ESTROFA
    
        E                           C#m
    
  • E-C#m-E-C#m-E-C#m-E-C#m
    
    ESTROFA
    
        E                           C#m
    Si tu me hubieras dicho siempre la verdad,
           E                      C#m
    si hubieras respondido cuando te llame.
    
           A      B         A       B
    Si hubieras amado, cuando te ame,
       E                      C#m
    serias en mi sueños la mejor mujer.
    
       A            B ( E-B)
    Si no supiste amar,
      A          B        E
    Ahora te puedes marchar.
    
    E-C#m-E-C#m
    
  •         DO   REm  MI   FA   SOL  SOL# LAm
    1ª(E)----0----1----0----1----3----4----0----
    2ª(B)----1----3----0----1----3----4----1----
    3ª(G)----0----2----1----2----0----5----2----
    4ª(D)----2----0----2----3----0----6----2----
    5ª(A)----3---------2----3----2----6----0----
    6ª(E)--------------0----1----3----4---------
    
    
    =INTRO=
          DO            LAm           DO            LAm
    E------------------------------------------------------------
    B------------------------------------------------------------
    G------------------------------------------------------------
    D------------------------------------------------------------
    A------3-3----3-3----0-0----0-0----3-3----3-3----0-0----0-0--
    E----3------3------0------0------3------3------0------0------
    
    
          DO                           LAm
    
  • e----------------------
    b----------------------
    g---4----------6-------
    d----6-6-6-4-6---6-6---
    a----------------------
    e----------------------
    
    Variantes de las estrofas  ( debes jugar con estas variantes y el intro
    segun escuches la cancion)
    
    intro - 1er variante
    e----------
    b---5-4----
    g-------6--
    d----------
    a----------
    e----------
    
    intro- 2da variante
    e----------
    
  • +
    ¡Colabora con nosotros!
    Envíanos tu versión de esta canción

Letra de Ahora te Puedes Marchar
Riff 2
ESTROFA
Si tú me hubieras dicho siempre la verdad,
si hubieras respondido cuando te llame,
si hubieras amado, cuando te amé,
serías en mi sueños la mejor mujer,
si no supiste amar,
ahora te puedes marchar.
INTER Riff 2 (2)
Si tú supieras lo que yo sufrí por ti,
teniendo que olvidarte sin saber por qué,
y ahora me llamas, me quieres ver,
me juras que has cambiado y piensas en volver,
si no supiste amar,
ahora te puedes marchar.
Riff 3
Aléjate de mí, no hay nada más que hablar,
contigo yo perdí, ya tengo con quien ganar.
Ya sé que no hubo nadie que te diera lo que yo te di,
que nadie te ha cuidado como te cuidé,
por eso comprendo, que estás aquí,
pero ha pasado el tiempo y yo también cambié,
si no supiste amar,
ahora te puedes marchar.
Riff 3
Aléjate de mí, no hay nada más que hablar,
contigo yo perdí, ya tengo con quien ganar.
Ya sé que no hubo nadie que te diera lo que yo te di,
que nadie te ha cuidado como te cuidé,
por eso comprendo, que estás aquí,
pero ha pasado el tiempo y yo también cambié,
si no supiste amar,
ahora te puedes marchar.
si no supiste amar,
ahora te puedes marchar.
FINAL Riff 2 (4)




[Ahora te Puedes Marchar acordes][Ahora te Puedes Marchar chords]
© LaCuerda.net · notícia legal · privacidade · es · en · pt · contato
DINAMICO