Cifras para Violão e Guitarra » M »Maldita Nerea » El secreto de las tortugas (Tab)

El secreto de las tortugas
Maldita Nerea

Letras, cifras e tablaturas para violão, guitarra, piano, ukulele e baixo

  •      F#      A#      D#m      B        G#      C      Fm      C#
    1||---2---|---6---|---6---|---7---||---4---|---8---|---8---|---9---|
    2||---2---|---6---|---7---|---7---||---4---|---8---|---9---|---9---|
    3||---3---|---7---|---8---|---8---||---5---|---9---|---10--|---10--|
    4||---4---|---8---|---8---|---9---||---6---|--10---|---10--|---11--|
    5||---4---|---8---|---6---|---9---||---6---|--10---|---8---|---11--|
    6||---2---|---6---|---6---|---7---||---4---|---8---|---8---|---9---|
    
    ----------------------------------o---------------------------------
    
    Intro: F# - A# - D#m - B (x2)
    
    1||-----|         1||------------------------|---------------------|
    2||-----|         2||---2-4-2----------------|---2-4-2-------------|
    3||-----| (x1)    3||-3-------3----1-3-1-----|-3-------3----1-3----| (x2)
    4||--4--|         4||------------4-------4-1-|------------4-----4--|
    5||-----|         5||------------------------|---------------------|
    6||-----|         6||------------------------|---------------------|
    
    >> (Punteo)                   A#                           D#m     B
    
  • ----8---------
    ----8---------
    ----8------10-
    ----8------10-
    ----8---------
    ----x---------
    
    
    
    ----estrofa-----
    
          FA                      LA                    REm       LA# 
    He perdido sin quererlo los papeles que me diste antesdeayer
            FA                       LA             REm         LA# 
    Donde estaban los consejos que apuntamos pa´que todo fuera bien
              FA              LA             REm                  LA#
    Y ahora estamos camino de la frontera disfrutando a poquitos la vida entera
             FA                        LA                         REm   LA#
    Así que tengo que encontrarte para verte y que me digas otra vez
    
    
  • +
    ¡Colabora con nosotros!
    Envíanos tu versión de esta canción

Letra de El secreto de las tortugas
He perdido sin quererlo los papeles que me diste antes de ayer,
donde estaban los consejos que apuntamos pa que todo fuera bien.
Y ahora estamos camino de la frontera
disfrutando a poquitos la vida entera,
así que tengo que encontrarte para verte y que me digas otra vez.
Y necesito una ayudita una palabra que me pueda convencer.
Y cuando me hablas la montaña es más pequeña y no se mueve cada vez.
Que dice que cruzamos camino de la frontera
disfrutando a sorbitos la luna llena,
como no voy a mojarme si aquí dentro nunca deja de
llover, aquí no para de llover.
Y si seguimos con el plan establecido,
nos cansaremos al ratito de empezar.
Probablemente no encontremos el camino,
pero nos sobraran las ganas de volar.
Que fácil es perderse de la mano madre mía agárrate,
que el vacío de ese vaso no se llena si no vuelves tu a querer.
Y pasa cuando estamos camino de la frontera,
pobrecita cansada la vida queda,
como no voy a pasarla sino paro y nunca dejo de correr.
Y si no paro de correr.
Improvisemos un guión definitivo,
que no tengamos más remedio que olvidar.
Que acerque todas las estrellas al camino,
para que nunca falten ganas de soñar.
Y suena bien, parece que los hemos convencido,
hace ya tiempo que no estamos divididos,
algo sobraba cuando echamos a volar.
Y qué qué qué, que suena diferente,
en tu futuro, tu pasado y mi presente.
Y hemos sobrevivido, aunque no se a que,
y es que andábamos tan perdidos, que no podíamos ver
la alegría que se lleva el miedo, los buenos ratos, el sol de enero,
ver contigo que amanece…
Pensando daun bidaum bidaum, ¡¡daun bidaum bidaum!!
Cuenta hasta tres, empiezo yo primero,
que así el efecto del disparo es más certero.
Y ya me sigues tu, quitándole la prisa,
mirando como la tortuga tengo tiza.
Y nadie se hará el camino sin suerte,
que aquí lo malo en algo bueno se convierte.
Existe un sendero, y te has convencido, asique empiézalo conmigo
y echaremos a volar y echaremos a volar…
Nadie se hará el camino sin suerte,
que aquí la pena en pedacitos se convierte.
Aguarda un mundo entero, titiritero, no le hagas esperar.




[El secreto de las tortugas acordes][El secreto de las tortugas chords]
© LaCuerda.net · notícia legal · privacidade · es · en · pt · contato
DINAMICO