Cifras para Violão e Guitarra » M »Maná » Clavado en un Bar (Tab)

Clavado en un Bar
Maná

Letras, cifras e tablaturas para violão, guitarra, piano, ukulele e baixo

  •   B   E   B      E    F#      B   E   B      E     F#
    G------9----------9----------------9----------9----------
    D--9---9---9------9---4---4----9---9---9------9---4---4--
    A--9---7---9------7---4---4----9---7---9------7---4---4--
    E--7-------7----------2---2----7-------7----------2---2--
    
    
    
       B   E   B      E     F#      B  E    G#m
    G------9----------9----------------9-------
    D--9---9---9------9---4---4-----9--9-----6-
    A--9---7---9------7---4---4-----9--7-----6-
    E--7-------7----------2---2-----7--------4-
    
    B
     Aquí me tiene bien clavado,
    F#
      Soltando las penas en un bar,
    G#m                   E
       Brindando por su amor.
    
  • INTRO:A D A D E E X3
          A D F#
    
    VERSOS:
       A                   E
     Aqui me tiene bien clavado
                                     F#m
     Son tantas las penas en un bar
                         D
     Brindando por tu amor.
    
      A                      E
     Aqui me tiene abandonado
                                 F#m
     Bebiendo tequila pa'olvidar
                                D
     Y sacudirme hacia el dolor
    
    PRECORO:
     A    E         F#m
    
  •    B   E    B   E     F#  (x3)
    
       B   E    G#m
    
     1.-
        B                    F#
     Aqui me tiene bien clavado
                                     G#m
     Son tantas las penas en un bar
                         E
     Brindando por su amor
     
        RIFF A
     
    e---------------------
    B------0-0--2---------
    G---------------------
    D---4-----------------
    A---------------------
    E---------------------
    
  •   B  F# G#m E   D#  E   D#m  
    e-2--2--4---0----6--7----6-----
    B-4--2--4---0----6--7----7-----
    G-4--3--4---1----8--9----8-----
    D-4--4--6---2----8--9----8-----
    A-2--4--6---2----6--7----6-----
    E-2--2--4---0----6--7----6-----
    *******************************
                      Clavado En 
                        Un Bar
     
     
     INTRO
     
     Oh yeah!
     
        B   E    B   E      Gb 
    e--7--7-7---7--7-7----9--9
    B--7--7-7---7--7-7----9--9
    G--8--9-9---8--9-9---11-11
    
  •    B   E   B      E    F#      B   E   B      E     F#
    e--7---7---7------7---2---2----7---7---7------7---2---2--
    B--7---9---7------9---2---2----7---9---7------9---2---2--
    G--8---9---8------9---3---3----8---9---8------9---3---3--
    D--9---9---9------9---4---4----9---9---9------9---4---4--
    A--9---7---9------7---4---4----9---7---9------7---4---4--
    E--7---7---7------7---2---2----7---7---7------7---2---2--
    
    
    
       B   E   B      E     F#      B  E    G#m
    e--7---7---7------7---2---2-----7--7-----4-
    B--7---7---7------7---2---2-----7--9-----4-
    G--8---9---8------9---3---3-----8--9-----4-
    D--9---9---9------9---4---4-----9--9-----6-
    A--9---7---9------7---4---4-----9--7-----6-
    E--7---7---7------7---2---2-----7--7-----4-
    
    
    B
    
  •  G------9-------9----------------9-------9----------
     D--9---9---9---9---4---4----9---9---9---9---4---4--
     A--9---7---9---7---4---4----9---7---9---7---4---4--
     E--7-------7-------2---2----7-------7-------2---2--
    
     G------9-------9----------------9-------
     D--9---9---9---9---4---4-----9--9-----6-
     A--9---7---9---7---4---4-----9--7-----6-
     E--7-------7-------2---2-----7--------4-
    
     ESTROFA
     B                           F#                           G#m
     Aquí me tiene bien clavado, soltando las penas en un bar,
                      E
     Brindando por su amor.
     B                        F#                           G#m
     Aquí me tiene abandonado, bebiendo tequila pa'olvidar,
                           E    F#
     Y sacudirme hacia el dolor.
    
    
  • e|-7--7--7--7--2--2--7--7--7--7--2--2--7--7--7--7--2--2-|
    b|-7--7--7--7--2--2--7--7--7--7--2--2--7--7--7--7--2--2-|
    g|-8--9--8--9--3--3--8--9--8--9--3--3--8--9--8--9--3--3-|
    d|-9--9--9--9--4--4--9--9--9--9--4--4--9--9--9--9--4--4-|
    a|-9--7--9--7--4--4--9--7--9--7--4--4--9--7--9--7--4--4-|
    e|-7-----7-----2--2--7-----7-----2--2--7-----7-----2--2-|
    
    e|-7--7--4-|
    b|-7--7--4-|
    g|-8--9--4-|
    d|-9--9--6-|
    a|-9--7--6-|
    e|-7-----4-|
    Verso
       B                    F#
    Aqui me tiene bien clavado
    e|-7-7--7--7-7--7--2-2--2--2-2--2-|
    b|-7-7--7--7-7--7--2-2--2--2-2--2-|
    g|-8-8--8--8-8--8--3-3--3--3-3--3-|
    d|-9-9--9--9-9--9--4-4--4--4-4--4-|
    
  • Intro:
    (entra primero guitarra sola, después el bajo con esto):
    
    G |--------------------------------------------------------
    D |--------------------------------------------------------
    A |--------7-----9-9-------7------11(mantener nota)--------
    E |--7-7-7---7-7-----7-7-7---7-7---------------------------
    
    
    Verso: (es con un rítmo como calypso o reggae)
    G |--------------------------------------------------------
    D |--------------------------------------------------------
    A |--1/2-2-2---1/2-2-2-------------------------------------
    E |----------------------1/2-2-2---1/2-2-2---2/4-4-4---2/4-
    
    
    G |--------------------------------------------------------
    D |--------------------------------------------------------
    A |--------6/7-7-7---6/7-7-7---1/2-2-2---1/2-2-2-----------
    E |--4-4-------------------------------------------1/2-2-2-
    
    
    G |--------------------------------------------------|-----
    D |--------------------------------------------------|-----
    A |-------------
  • Intro
    C |----------------|----------------|----------------|----------------|
    H |----------------|----------------|----------------|----------------|
    S |----------------|----------------|----------------|----------------|
    B |----------------|----------------|----------------|----------------|
       1 + 2 + 3 + 4 +  1 + 2 + 3 + 4 +  1 + 2 + 3 + 4 +  1 + 2 + 3 + 4 +
    
    C |X-----------X---|--------X---X---|X-----------X---|----------------|
    H |----------------|----------------|----------------|x---------------|
    T1|------o---------|--o-------------|------o---------|------ooo-o-----|
    T2|------o---------|--o-------------|------o---------|------------o---|
    S |o-----------o---|--------o---o---|o-----------o---|----------------|
    B |--o-o---o-o---o-|o---o-o---------|--o-o---o-o-----|----------------|
       1 + 2 + 3 + 4 +  1 + 2 + 3 + 4 +  1 + 2 + 3 + 4 +  1 + 2 + 3 + 4 +
    
    1er Verso
    C |X---------------|----------------|----------------|----------------|
    R |----------------|-------------
  • +
    ¡Colabora con nosotros!
    Envíanos tu versión de esta canción
  • Tutorial
    HD
    Clavado en un Bar - Mana - Cover - Como tocar en guitarra acordes
    7:14
  • Tutorial
    HD
    Como tocar Clavado en un Bar - Mana - Tutorial de Guitarra
    16:52
  • Tutorial
    Como tocar Clavado en un bar - Mana
    4:02
  • Tutorial
    Como tocar CLAVADO EN UN BAR DE MANA (TABLATURA)
    4:04
  • Tutorial
    HD
    Clavado en un bar - Maná: SOLO GUITARRA TAB #26
    0:37

Letra de Clavado en un Bar
*******************************
Clavado En
Un Bar



Oh yeah!

1.-
Aqui me tiene bien clavado
Son tantas las penas en un bar
Brindando por tu amor


Aqui me tiene abandonado
Bebiendo tequila pa'olvidar
Y sacudirme hacia el dolor

BRIDGE

Donde estas bendita?
Donde te has metido?
Abre un poco el corazon
Deja amarte corazon
Ven y sacame de este bar


Estoy clavado,
Estoy herido,
Estoy ahogado en un bar
Desesperado,
En el olvido amor,
Estoy ahogado en un bar Hey!


2.-
Se que te gustan demasiados
Que te pretende cantidad
Pero eso no es felicidad
Y mi amor nunca se raja
Y mi amor nunca jamas te va a fallar
Nunca jamas

BRIDGE


Voy desesperado,
Voy en el olvido,
Estoy ahogado en un bar

3.-
Dejate querer amor
Quiero ser tu todo
Y tu corazon
Ven a rescatarme amor
Yo quiero ser tu sol
Yo quiero ser tu mar Oooohhh!



4.-
Aqui me tienen embriagado
Llorando de rabia en un bar
Brindando por su amor




Aqui me tiene bien clavado
Tomando tequila pa'olvidar todo
No es justo amor


FINAL:




[Clavado en un Bar acordes][Clavado en un Bar chords]
© LaCuerda.net · notícia legal · privacidade · es · en · pt · contato
DINAMICO