Cifras para Violão e Guitarra » M »Maná » Ojala pudiera borrarte (Tab)

Ojala pudiera borrarte
Maná

Letras, cifras e tablaturas para violão, guitarra, piano, ukulele e baixo

  • D* 000032
    
    Intro:
    G D* G D*
    
    G D*              C                  D
    Ojala y te me borraras de mis sueños
                    G D* G D*
    y poder desdibujarte
                        C
    ojala y pudiera ahogarte en un charco
    D                   G D* G D*
    lleno de rosas de amor
    
                       C                   D
    Ojala y se me olvidara hasta tu nombre
                        G D* G D*
    a verlo dentro del mar
                       C
    ojala y que tu sonrisa de verano
    
  • Em     D    C    G                D
    Vuelve corazón, uh, vuelve  a mi lado,
    Em     D    C        Em                      Bm
    Vuelve corazón, no vuelve, no vuelve, no vuelve.
    
    C                G                             Bm                 Em
    Ojala y te me borraras para siempre,de mi vida para no volverte a ver,
    C                  G                            Bm                     Em
    Y ojala y te me borraras por las noches, en el dia, para no volverte a ver,
    C                    G                        Bm                     C   D
    Y ojala y te me esfumaras de mis sueños vida mia para no volverte a ver no
            G
    ni en sueños.
    
    1|----------------------|---------------------|
    2|-------------4/5------|---------------------|
    3|----4-5-7-7-----------|-2-4-5-5--4-2-4------|
    4|-5----------------5-4-|---------------------|
    5|----------------------|-----------------5/0-|
    6|----------------------|---------------------|
    
  • G             C                      D                   G
    Ojala y te me borraras de mis sueños, y poder desdibujarte.
    G                  C                  D                  G
    Ojala y pudiera ahogarte en un charco lleno de rosas y amor,
    G                 C                    D                     G
    Ojala y se me olvidara hasta tu nombre, ahogarlo dentro del mar,
    G                 C                 D             G
    Ojala y que tu sonrisa de verano se pudiera ya borrar.
    
    Em     D    C    G                D
    Vuelve corazón, uh, vuelve  a mi lado,
    Em     D    C        Em                      Bm
    Vuelve corazón, no vuelve, no vuelve, no vuelve.
    
    C                G                   Bm                 Em
    Ojala y te me borraras para siempre, para no volverte a ver,
    C                  G                            Bm                     Em
    Y ojala y te me borraras por las noches, en el dia, para no volverte a ver,
    C                    G                        Bm                     C   D
    Y ojala y te me esfumaras de mis sueños vida mia para no volverte a ver no
    
  • E|----3------------2-----------|  |---------------------------|
    B|----3------------3-----------|  |---------------------------|
    G|----x------------x-----------|  |---------------------------|
    D|----5------------4-----------|X5|---5-------7---------------|
    A|-----------------------------|  |---7-------5---------------|
    E|-----------------------------|  |---------------------------|
    
    
                     (riff 2)
    G     G7            C
       Ojalá y te me borraras de mis sueños
                      (riff 1)
    D                  G     G7
      Y poder desdibujarte
                      (riff 2)
    G     G7              C
       Ojalá y pudiera ahogarte en un charco
                      (riff 1)
      D                G    G7
    Lleno de rosas y amor
    
  • |  G:   320033  |
    |  G7 : 320032  |
    |  C:   032010  |
    |  Em:  022000  |
    |  D:   000232  |
    |  Bm:  224432  |
    |  Am:  002210  |
    |_______________|
    
    
    
            G       G      G7            [x5]
    E-||----3-------3-------2-------|
    B-||----3-------3-------3-------|
    G-||----0-------0-------0-------|
    D-||----------------------------|
    A-||----------------------------|
    E-||----------------------------|
    
    
    
  • la anterior estaba mal porke la skala no era asi
    
    Intro
    E|-----|---|----|
    A|-----|---|----|
    D|-----|---|-5--|
    G|-2h5-|-7-|----|
    
    Ojala y te me
    E|----|---|----|
    A|----|---|----|
    D|----|---|-5--|
    G|--5-|-7-|----|
    
    ..............................Ojala y se me olvidara"
    E|-12-14------------------|----|----|----------|--------------|
    A|-----12-14--------------|----|----|----------|-10-------10--|
    D|----------12-14---------|----|----|----------|----10-12-----|
    G|---------------12h14/16-|-14-|-12-|-11h12-11-|--------------|
    
    Ojala y que tu sonrisa  ..borrar..
    E|-------|----|-----|   |---------|
    A|-------|----|-10--|   |--15-17--|
    D|--9-10-|-12-|-----|   |---------|
    G|-------|----|-----|   |---------|
    
      Vuelve cora   zon
    E|------|-----|-----|-3---------|-3-3--3-3-|-----|-----|-3----------|
    A|--5-7-|-3-5-|-3-3-|---3-3-3-5-|----------|-3-5-|-3-5-|---3-3-3-5--|
    D|------|-----|-----|-----------|----------|-----|-----|------------|
    G|------|-----|-----|-----------|----------|-----|-----|-----------
  • G D G D
    Intro
    E|-----|---|----|
    A|-----|---|----|
    D|-----|---|-5--|
    G|-2h5-|-7-|----|
    
    Ojala y te me
    E|----|---|----|
    A|----|---|----|
    D|----|---|-5--|
    G|--5-|-7-|----|
    
    Ojala y pudiera
    E|----|----|
    A|----|----|
    D|----|----|
    G|--5-|-7--|
    
    ..............................Ojala y se me olvidara"
    E|-3h5-3h5-10h12-------------|----|----|----------|--------------|
    A|---------------10h12-------|----|----|----------|-10-------10--|
    D|---------------------------|----|----|----------|----10-12-----|
    G|---------------------14/16-|-14-|-12-|-11h12-11-|--------------|
    
    Ojala y que tu sonrisa  ..borrar..
    E|-------|----|-----|   |---------|
    A|-------|----|-10--|   |--15-17--|
    D|--9-10-|-12-|-----|   |---------|
    G|-------|----|-----|   |---------|
    
      Vuelve cora   zon
    E|------|-----|-----|-3---------|-3-3--3-3-|-----|-----|-3----------|
    A|--5-7-|-3-5-|-3-3-|---3-3-3-5-|----------|-3-5-|-3-5-|---3-3-3-5--|
    D|------|-----|-----|-----------|----------|-----|-----|------------|
    G|------|-----|-----|-------
  • +
    ¡Colabora con nosotros!
    Envíanos tu versión de esta canción

Letra de Ojala pudiera borrarte
Ojala y te me borraras de mis sueños
y poder desdibujarte
ojala y pudiera ahogarte en un charco
lleno de rosas de amor
Ojala y se me olvidara hasta tu nombre
a verlo dentro del mar
ojala y que tu sonrisa de verano
se pudiera ya borrar
Vuelve corazon huu uuu vuelve a mi lado
vuelve corazon no vuelve no vuelve no vuelve no
Ojala y te me borraras para siempre
de mi vida para no volverte a ver
Y ojala te me borraras por las noches en el dia
para no volverte a ver
Y Ojala te me esfumaras de mis sueños
vida mia para no volverte a ver
no ni en sueños
Como puedo yo borrar tus besos vida
estan tatuados en mi piel
quiero de una vez por todas ya largarte
y borrarte de mi ser
Ojala y la lluvia me ahogue entre sus brazos
para no pensar en ti
o que pase un milagro o pase algo
que me lleve hasta ti
Vuelve corazon huu uuu vuelve a mi lado
Pero no no no vuelve corazon no vuelve no vuelve no vuelve no
Ojala y te me borraras para siempre
de mi vida para no volverte a ver
Y ojala te me borraras por las noches en el dia
para no volverte a ver
Y Ojala te me esfumaras de mis sueños
vida mia y que no me lluevas mas
Y ojala que la lluvia me ahogue entre sus brazos
para no volverte a ver no ni en sueños
Pa que pares de llover sueños




[Ojala pudiera borrarte acordes][Ojala pudiera borrarte chords]
© LaCuerda.net · notícia legal · privacidade · es · en · pt · contato
DINAMICO