Cifras para Violão e Guitarra » M »Maná » Pobre juan (Tab)

Pobre juan
Maná

Letras, cifras e tablaturas para violão, guitarra, piano, ukulele e baixo

  • B           F#                  G#m
    Juan se lanzó marchándose al norte
    E                     F#
    iba en busca de una vida digna
    B           F#                  G#m
    cruzando México por valles y por montes
    E               F#
    iba Juan lleno de fe.
    B           F#                  G#m
    La historia es que Juan se iba a casar
    E               C#m
    con María embarazada
    E         F#            B
    pero él no tenía un centavo
          F#    E         B
    ni un clavo que darle.
    
    B           F#                  G#m
    Pero este Juan iba muy decidido
    E                                F#
    
  • B                        G#m
    Juan se lanzó marchándose al norte
    E                     F#
    iba en busca de una vida digna
    B                        G#m
    cruzando México por valles y por montes
    E               F#
    iba Juan lleno de fe.
    B                        G#m
    La historia es que Juan se iba a casar
    E               F#
    con María embarazada
    E         F#            B
    pero él no tenía un centavo
          F#    E         B
    ni un clavo que darle.
    B                     G#m
    Pero este Juan iba muy decidido
    E                                F#
    y a la frontera él llegó con todo el filo.
    
  • B        B*                  G#m      F#
    Juan se lanzó marchándose al norte
    E                     F#  
    iba en busca de una vida digna
    B      B*                  G#m      F#
    cruzando México por valles y por montes
    E               F#  
    iba Juan lleno de fe.
    B            B*            G#m      F#
    La historia es que Juan se iba a casar
    E               F#    
    con María embarazada  
    E         F#            B
    pero él no tenía un centavo
          E      F#         B      
    ni un clavo que darle. 2-2-4-6 sexta cuerda
    B        B*               G#m     F#
    Pero este Juan iba muy decidido
    E                                F#  2-2-4-6
    y a la frontera él llegó con todo el filo.
    
  •    B: x 2 4 4 3 2
    B/Bb: x 1 x 4 4 x -> es la forma más fácil: índice a Bb, anular a B y meñique a D#
                         Si no funciona, prueba: 6 9 9 x x x
     G#m: 4 6 6 4 4 4
      F#: 2 4 4 3 4 4
       E: 0 2 2 1 0 0
     F#7: 2 4 2 3 2 2 -> suena mejor F# en su lugar, pero armónicamente F#7 es más correcto.
      E-: x x 1 1 0 0
      C#: x 4 6 6 6 4
     D#m: x 6 8 8 7 6
    
    **********************************************************************
    
    Introducción - Verso 1:
    
     |Guitarra 1
     |B       B/Bb     G#m     F#       E                F#7
     |+   +   +   +    +   +   +   +    +   +   +   +    +   +   +   +   |
    e|----2------0----|----------------|--------0-------|--------2--0----|
    B|--4---4---4---4-|--0-4-0----2----|---0-------0----|---2----------0-|
    
  • AHI VA CHAVALES/AS. S LOA PRIMERA TABLATURA KE AGO, 
    ASÍ QUE PAR CUALQUIER CORRECIÓN,SCRIBIRME.
    
    E----2----0-----------------0--------2-0--
    B---4-4--4-4--040---2-----0---0----2----0-
    G------------------3-3---1-1-1-1--3-3-3---   
    D-----------------------------------------  
    A----------------------------------------- 
    E-----------------------------------------
    REPETIR 3 VECES
    
    
    E--2----0-------------020---2------2-----242--020---2---020---2------
    B-4-4--4-4--040---2--------4-4--242-242------------4-4-------4-4--242
    G----------------3-3-------------------------------------------------
    D--------------------------------------------------------------------
    A--------------------------------------------------------------------
    E--------------------------------------------------------------------
    
    
    
    E----2----0-----------------0--------2-0--
    B---4-4--4-4--040---2-----0---0----2----0-
    G------------------3-3---1-1-1-1--3-3-3---   
    D---------------------------------------
  • Este es el riff para el intro y los versos
    
    e------2--------------0------------------------------
    b----4---4---------4----4---------4---------2--------
    g--4------------4---------------4---4-----3---3------
    d-----------------------------6---------4------------
    a---------------------------6------------------------
    E----------------------------------------------------
    
    e----------0------------------2-----0----------------
    b------0--------0---------2-----------0--------------
    g----1---1----1---1-----3---3----3-------------------
    d--2------------------4------------------------------
    a----------------------------------------------------
    E----------------------------------------------------
    
    Juan se lanzo marchandose al norte
    iba en busca de una vida digna
    cruzando Mexico por valles y por montes
    iba Juan lleno de fe
    La historia es que Juan se iba casar 
    con maria........
    
    e----------------------------------------------------
    b-----9------------7------------------------
  • ESTA ROLA VA PARA TODAS LAS FAMILIAS QUE DEBIDO
    A LAS INJUSTICIAS EN NUESTROS PAISES SE HAN VISTO
    AFECTADAS POR LA INMIGRACION ASI COMO A LA
    RAZA TRABAJADORA Y HONESTA EXTRANJERA EN LOS
    ESTADOS UNIDOS.
    
    INTRO
    
    G----------------------------------------
    D--9-9-9-9-9-9--8-8--6-6-6-6-6-6--4-4----
    A----------------------------------------
    E----------------------------------------
    
    G------------------------------------------
    D--2-2-2-2-2---2-2--4-4-4-4-4--8-8--11-11--
    A------------2-----------------------------
    E------------------------------------------
    
    VERSO 1
    Juan se lanzo...
    
    G----------------------------------------
    D--9-9-9-9-9-9--8-8--6-6-6-6-6-6--4-4----
    A----------------------------------------
    E----------------------------------------
    
    G------------------------------------------
    D--2-2-2-2-2---2-2--4-4-4-4-4--8-8--11-11--
    A------------2-----------------------------
    E------------------------------------------
    
    TODO ESO 2 VECES
    
    La historia es...
    
    
  • †††††††††††††††††††††††††††††††††††††††††††††††††††††††††††††††††††
    ††† Hermanos Mexicanos y Latinoamericanos caídos en la busqueda †††
    †††                     de una vida mejor                       †††
    †††††††††††††††††††††††††††††††††††††††††††††††††††††††††††††††††††
    
    
    Armónica entonada en SI [B]
    
    *Leyenda:
     # - Nota soplada
    (#)- Nota aspirada
     * - Bending de nota
     / - Slide de nota (deslizamiento)
     ~ - Agitar la armoóica hacia los lados rápidamente
    
    (Intro e Intermedio)
    
     2/5
    (4) 4 3
    (3) 3 2
    (3)* (3)* 3 2 2 (2)* (2)*
    
    
    (Outro)
    
     2/5
    (4) 4 3
    (3) 3 2
    (3)* (3)* 3 2 2 (2)*(2)*(2)*(2)*~
    
     2/5
    (4) 4 3
    (3) 3 2
    (3)*(3)* 3 (2)*(2)* 2
    
    
    *Corrección: 24/09/2010 - 08/03/2003
    *Dudas o comentarios a mi e-mail: gerewalsh@gmail.com
  • +
    ¡Colabora con nosotros!
    Envíanos tu versión de esta canción

Letra de Pobre juan
Juan se lanzó marchándose al norte
iba en busca de una vida digna
cruzando México por valles y por montes
iba Juan lleno de fe.
La historia es que Juan se iba a casar
con María embarazada
pero él no tenía un centavo
ni un clavo que darle.
Pero este Juan iba muy decidido
y a la frontera él llegó con todo el filo.
Se conectó con el mero mayor de los coyotes
y la historia le contó:
Mire usted que yo quiero cruzarme ya
a San Diego o Chicago,
dígame usted lo que hago,
qué precio le pago.
Juan ya nunca regresó,
en la línea se quedó,
pobre Juan,
o la migra lo mató
o el desierto lo enterró,
pobre Juan.
Oh, oh, oh, oh.
Juan le enseñó al coyote una foto de María,
con la cual se casaría.
Le prometió que él regresaría
para formar todo un hogar.
Pero el coyote a Juan lo traicionó,
dejándolo al olvido,
de tres balas se tronaron a Juan,
pobre de Juan,
no regresó.
Juan ya nunca regresó,
en la línea se quedó,
pobre Juan,
o la migra lo mató
o el desierto lo enterró,
pobre Juan.
y María lo fue a buscar
y ella nunca lo encontró,
desapareció, oh...




[Pobre juan acordes][Pobre juan chords]
© LaCuerda.net · notícia legal · privacidade · es · en · pt · contato
DINAMICO