Cifras para Violão e Guitarra » M »Maná » Rayando el Sol (unplugged) (Tab)

Rayando el Sol (unplugged)
Maná

Letras, cifras e tablaturas para violão, guitarra, piano, ukulele e baixo

  •             G       C 
    Rayando el sol
                 D      C 
    rayando por ti
            G 
    esta pena me duele 
         C            D     C 
    me quema sin tu amor
    
    
           Bm 
    No me has llamado 
     C             D 
    estoy desesperado
         Bm 
    son muchas lunas 
     C                 D 
    las que te he llorado
    
    
    
  •    G       D           Em      C
    e ---3-------2-----------3-------3----------
    B -3---0-3-3---------3/5-----5-5---1-1------
    G -------------2-2-4-------4-----------4-2--
    D ------------------------------------------
    A ------------------------------------------
    E ------------------------------------------
    
       G       Bm          C           D         Em
    e ---3-------2-----------------------2---------
    B -3---0-3-3---------3---5-------3-5-----------
    G -------------2-4-4---5---2-4-5-------2-2-4---
    D -------------------------------------------2-
    A ---------------------------------------------
    E ---------------------------------------------
    
    Este es el segundo solo ya que el primer solo
    de la tablatura anterior suena correctamente a
    la camcion por eso solo escribi  el segundo solo…
    
    
  • e|--5-7-5-3-2-3--|--5-7-8-10-8--|-5-7-5-3-7-8-7-|--------------------|
    B|--5-7-5-3-3-3--|--5-7-8-10-8--|-5-7-5-3-7-8-7-|--------------------|
    G|---------------|--------------|---------------|--------------------|
    D|---------------|--------------|---------------|--------------------|
    A|---------------|--------------|---------------|--------------------|
    E|---------------|--------------|---------------|--------------------|
    
    Intro:              
    G - D - Em - C  
    G - Bm - C - D - Em 
    
                G  C              D   C 
    Rayando el sol,   rayando por ti
           G                C            D   C 
    esta pena me duele me quema sin tu amor (riff 1)
           Bm          C             D
    No me has llamado estoy desesperado (riff 2)
          Bm          C                 D
    son muchas lunas las que te he llorado
      
    
  •    G           D              Em7          Cadd9
    e-------7----|--------------|--------7---|--------8-8----------
    B-----8----8-|-----7--10-10-|-----8----8-|-----8---------------
    G--7---------|-77-----------|--9---------|-79----------9-------
    D------------|--------------|------------|---------------------
    A------------|--------------|------------|---------------------
    E------------|--------------|------------|---------------------
    
       G           Bm7           C9            D            Em
     -------7----|-------77----|------3------|-------55--|--3----0-0-0-0--0-0--------
     -----8------|----7--------|----5-----5--|-3--7------|--3----0-0-0-0--0-0--------
     --7-------7-|-7---------7-|-5------5----|-----------|--0----0-0-0-0--0-0--------
     ------------|-------------|-------------|-----------|--2----2-----2----2--------
     ------------|-------------|-------------|-----------|--2------------------------
     ------------|-------------|-------------|-----------|--0------------------------
    
    [VERSE]       
    
                  G    C             D      Cadd9
     -------------3----0-------------2-------0--------
    
  •     G       D         Em        C  
    e -------------------------------------------
    B ----8-------7-----------8-------8----------
    G --7-----7-7---------7/9-----9-9------------
    D ------9-------7-7-9-------9-------10-10-9--
    A -------------------------------------------
    E -------------------------------------------
    
        G       Bm        C                 D         Em
    e ---------------------------------------------------
    B ----8-------7-------------------------7------------
    G --7-----7-7-------7----9-----------7---------------
    D ------9-------9-9---10------7-9-10------7-7--9-----
    A -------------------------10---------------------7--
    E ---------------------------------------------------
    
                G C             D C
    Rayando el sol rayando por ti
          G                 C            D C 
    esta pena me duele me quema sin tu amor
    
  • CorrecciónIntro:
    
    G-|---------------------|----------------------|----------------------|----------------------|     
    D-|--------0-0---4---0--|---------------2------|-----0---------4---0--|-----2-----2-0-4-0----|     
    A-|-----2---------------|-----2---3-3-------3--|---------2-2----------|-3-------3------------|
    E-|-3-------------------|-0--------------------|-3--------------------|-------------------(0)|     
    
    
    Verso 1
    
    Rayando el sol, rayando por ti, esta pena me duele me quema sin tu amor.
    
    G-|---------------------|----------------------|----------------------|----------------------|     
    D-|--------------2------|-0---4---0-----2------|---------------2------|-0---4---0-----2------|     
    A-|-----5--3-3-------3--|-----------3-------3--|-----5---3-3-------3--|-----------3-------3--|
    E-|-3-------------------|----------------------|-3--------------------|----------------------|
    
    
    no me has llamado estoy desesperado, son muchas lunas las que te he llorado 
    
    G-|--------
  • Es de la version en vivo mas larga que tiene Mana dura 7:45
    
    
    Las que estas en parentesis se aspiran y las que no tienen nada se soplan
    
    ___: Sostenida
    b  : Bend
    
    
    Intro (0:38 seg)
    
    
    5 7 (7) 6 5____
    
    5 7 (7) 6 (6)b____ tue
    
    (6) 6 6 5 6 (6) 6 6 5 6 (6) 6 (5)___
    
    5 7 (7) 6 5_
    
    
    Outro (3:56)
    
    
    7___ (6)b ue__ueueueueue repetidas veces
    
    (6)ue  7 6 6 (6) 5  5 6 7 7 6 7 7 6 7 7
  • +
    ¡Colabora con nosotros!
    Envíanos tu versión de esta canción

Letra de Rayando el Sol (unplugged)
Rayando el sol
rayando por ti
esta pena me duele
me quema sin tu amor
No me has llamado
estoy desesperado
son muchas lunas
las que te he llorado
Rayando el sol, oe oh
desesperación
es mas fácil llegar al sol
que a tu corazon
Me muero por ti , oe oh
viviendo sin ti
y no aguanto me duele tanto
estar asi, rayando el sol
A tu casa yo fui
y no te encontré
en el parque, en la plaza, en el cine
yo te busque
Te tengo atrapada
entre mi piel y mi alma
mas ya no puedo tanto
y quiero estar junto a ti.




[Rayando el Sol (unplugged) acordes][Rayando el Sol (unplugged) chords]
© LaCuerda.net · notícia legal · privacidade · es · en · pt · contato
DINAMICO