Cifras para Violão e Guitarra » M »Maná » Si no te hubieras ido (Tab)

Si no te hubieras ido
Maná

Letras, cifras e tablaturas para violão, guitarra, piano, ukulele e baixo

  • *intro: (Bm Bm D G G) x2
    
    Bm                  G          A        D    F#7
     Te extraño más que nunca y no sé qué hacer
    Bm                 G         A   D
     despierto y te recuerdo al amanecer
         A                            D
    me espera otro día por vivir  sin ti
    F#7            Bm
     el espejo no miente
                   G
    me veo tan diferente
    A               D
     me haces falta tú...
    
    F#7 - Bm               G            A    D    F#7
           La gente pasa y pasa siempre tan igual
    Bm             G         A    D
    el ritmo de la vida me parece mal
    A                                  D   F#7   Bm
    
  • SIm                SOL           LA        RE
    Te extraño mas que nunca y no se que hacer
    SIm                SOL      LA      RE
    despierto y te recuerdo al amanecer
    LA                                RE
    espera otro dia por vivir sin ti
    DOm       SIm               SOl          LA
    el espejo no miente me veo tan diferente
                     RE
    me ases falta tu.
    
    SIm              SOL         LA        RE
    La gente pasa y pasa siempre tan igual
    SIm              SOL       LA     RE
    el ritmo de la vida me parece mal
    LA                                 RE DOm SIm   SOl
    era tan diferente cuando estabas tu
                   LA                    RE
    si que era diferente cuando estabas tu.
    
    
  • LA disfruten..SUERTE
    
    
    Intro Bm
    1|------2-3-3-2-2-0-5-| 1|------2-3-3-2-2-0--|
    2|--2/3--3-3---3------| 2|--2/3--3-3---3-----| x2
    3|--------------------| 3|-------------------|
    
        Bm                  G         A         D
         TE EXTRAÑO MAS QUE NUNCA Y N0 SE QUE HACER
    F#7 Bm                 G         A   D
         DESPIERTO Y TE RECUERDO AL AMANECER
        A                               D
         ESPERA OTRO DIA POR VIVIR SIN TI
       F#7               Bm
         EL ESPEJO NO MIENTE
                       G
         ME VEO TAN DIFERENTE
        A                D   F#7
         ME HACES FALTA TU
    
  • C=corchea
    s= semicorchea
    n=negra
    F= fusa
    Si hay una nota y no hay múnero en la tablatura es un
    silencio (no los pongo todos)
    
    El compas es de 4 tiempos, pero aveces la suma no da
    ya que no pongo los silencios.
    
    
    
    -2-3-3-2  --2-0---  2--3-3-2  --2-0---  -2-3-3-2  --2-0-5-  -2-3-3-2
    3-3-3---  -3---3-3  -3--3---  -3------  3-3-3---  -3-----3  --3-3---
    --------  --------  --------  --------  --------  --------  --------
    --------  --------  --------  --------  --------  --------  --------
    --------  --------  --------  --------  --------  --------  --------
    --------  --------  --------  --------  --------  --------  --------
    CCSNSC-C  CCS NN F  CS-NSC-C  CCS N     CCSNSC-C  CCS-N-NF  CFSNSC-C
    
    
  • introduccion: Bm Bm D G G x2
    
    E|------2-3-3-2-2-0-5--| E|------2-3-3-2-2-0-----|
    B|--2/3--3-3---3---3---| B|--2/3--3-3---3---3-2--| x2
    G|---------------------| G|----------------------|
    
     Riff 1                   Riff 2
    E|----0---2-0----------| E|----0--2--3-2-0-------|
    B|---3-3-3---2---------| B|---3-3--3-------------|
    G|--2---2-----2--------| G|--2---2--2------------|
    D|-0-----------0-------| D|-0--------------------|
     Riff 3                   Riff 4
    E|---2-0---------------| E|----3-2-0-------------|
    B|--3---2--------------| B|---3-----3-2----------|
    G|-2--2--2-------------| G|--2-------------------|
    D|--------0------------| D|-0--------------------|
     Riff 5                   Riff 6  D
    E|---2-0---------------| E|-2-2-2-X3-------------|
    B|--3---2--------------| B|-3-3-3------3-2-------|
    G|-2-----2-------------| G|-2-2-2---2/4----------|
    
  • Estos son los arpegios miren abajo para ver donde se tocan.
    Ya que son tantos arpegios los que son usados decidi que este
    formato seria el mas sencillo de leer
    
    Estoy seguro que mi version de esta cancion es la mejor hasta
    ahora, y pueden verme tocarla en youtube aqui para que vean
    su validez:
    
    http://www.youtube.com/watch?v=ygWOWfLTxUw
    
    Intro
    E|------2-3-3-2-2-0-5-|    E|------2-3-3-2-2-0--|
    B|--2/3--3-3---3------|    B|--2/3--3-3---3-----|
    G|--------------------|    G|-------------------|
    D|--------------------|    D|-------------------|
    A|--------------------|    A|-------------------|
    E|--------------------|    E|-------------------|
    
    Riff 1                       Riff 2
    E|----0----2-0------|    E|----0--2--3-2-0-|
    B|---3-3-3----2---0-|    B|---3-3--3-------|
    G|--2---2-2----3----|    G|--2---2--2------|
    D|-0------------4---|    D|-0--------------|
    A|------------------|    A|----------------|
    E|------------------|    E|----------------|
    
    Riff 3                      Riff 4
    E|---------
  • 1er Comienzo: (Repetir 2 veces)
    
    G |-----------------------------------------------------------------|
    D |-----------------------------------------------------------------|
    A |-2-2-2-2-2-2-2-2-2-2-2-2/5-5-5-5---------------------------------|
    E |---------------------------------3-3-3-3-3-3-3-3-3-3-3-3-5-5-5-5-|
    
    
    Transcurso:
    
    G |-----------------------------------------------------------------|
    D |-----------------------------------------------------------------|
    A |-2-2-2-2-2-2-2-2---------0-0-0-0-5-5-5-5-5-5-5-5-5-5-5-5---------|
    E |-----------------3-3-3-3---------------------------------2-2-2-2-|
    
    G |-----------------------------------------------------------------|
    D |-----------------------------------------------------------------|
    A |-2-2-2-2-2-2-2-2---------0-0-0-0-5-5-5-5-5-5-5-5-5-5-5-5-5-5-----|
    E |-----------------3-3-3-3-------------------------------------3-2-|
    
    G |-----------------------------------------------------------------|
    D |-------------------------------------
  • "Si no te hubieras ido"
    (Una cosa ignoren laz letras que salen arriba)
    
    Si no te hubieras ido
    
    
    
     Si no te hubieras ido
    
    
                  E   E   E   E   E   E   E   E
    C||-------|--42--42--42--42--42--42--42--42--|
    C||-------|----------------------------------|
    C||-------|----------------------------------|
    C||-------|----------------------------------|
    C||-------|----------------------------------|
    C||-------|----------38------36------38------|
    
    
       E   E   E   E   E   E   E   E      E   E   E   E   E   E   E   E
    --42--42--42--42--42--42--42------|--42--42--42--42--42--42--42--42--|
    ----------------------------------|----------------------------------|
    ----------------------------------|----------------------------------|
    ------------------------------45--|----------------------------------|
    ----------------------------------|----------------------------------|
    --36------38------36------38------|--36------38------36------38------|
    
    
       E   E   E   E   E   E   E   S  S     E   E   E   E 
  • +
    ¡Colabora con nosotros!
    Envíanos tu versión de esta canción

Letra de Si no te hubieras ido
Te extraño más que nunca y no sé qué hacer
despierto y te recuerdo al amanecer
me espera otro día por vivir sin ti
el espejo no miente
me veo tan diferente
me haces falta tú...
La gente pasa y pasa siempre tan igual
el ritmo de la vida me parece mal
era tan diferente cuando estabas tú
sí que era diferente cuando estabas tú.
No hay nada mas difícil que vivir sin ti
sufriendo en la espera de verte llegar
el frío de mi cuerpo pregunta por ti
y no sé dónde estás...
si no te hubieras ido sería tan feliz
La gente pasa y pasa siempre tan igual
el ritmo de la vida me parece mal
era tan diferente cuando estabas tú
sí que era diferente cuando estabas tú.
No hay nada mas difícil que vivir sin ti, nooo
sufriendo en la espera de verte llegar,
el frío de mi cuerpo pregunta por ti
y no sé dónde estás...
si no te hubieras ido sería tan feliz
No hay nada mas difícil que vivir sin ti, nooo
sufriendo en la espera de verte llegar
y no sé dónde estás...
si no te hubieras ido sería tan feliz
si no te hubieras ido sería tan feliz
MANA - ARDE EL CIELO - 2008
PARA VOS MÁMOR... ESPERO QUE VUELVAS PRONTO,
PORQUE TE AMO!!! MAU
::::::::colaboraciones: cristian_8404@hotmail.com
pankylomas@hotmail.com
sliquidos77@hotmail.com




[Si no te hubieras ido acordes][Si no te hubieras ido chords]
© LaCuerda.net · notícia legal · privacidade · es · en · pt · contato
DINAMICO