Cifras para Violão e Guitarra » M »Maná » Vivir Sin Aire (unplugged) (Tab)

Vivir Sin Aire (unplugged)
Maná

Letras, cifras e tablaturas para violão, guitarra, piano, ukulele e baixo

  • INTRO  SOL,SIm,DO,RE
    
    
    
    
    SOL         SIm  DO     RE             (SOL SIm DO RE)
    Como quisiera       poder vivir sin aire
    
    SOL         SIm  DO     RE             (SOL SIm DO RE)
    Como quisiera      poder vivir sin agua
    
    
    SOL         SIm  DO     RE               (SOL SIm DO RE)
    Me encantaria      quererte un poco menos
    
    
    SOL         SIm  DO     RE            (SOL SIm DO RE)
    Como quisiera       poder vivir sin ti
    
    
    
  •    SOL          SIm          DO          RE
    
    E --3-----3---5--2-----2------0----0------2-2s4-0----
    B --3---3--------3---3---3----1---1--1----3-3s5---5--
    G --0-0-----0----4-4-------4--0-0------0--2-2s4-----4
    D ----------------------------------------0----------
    A ---------------2------------3----------------------
    E --3------------------------------------------------
    
    Luego lo anterior se repite nuevamente pero toca esto al final:
    
    E --3-2-2-0-0-------
    B --3-3-3-1-1--3-3s0
    G -------------4-4s1
    D ------------------
    A ------------------
    E ------------------
    
    
    SOL         SIm  DO     RE             (SOL SIm DO RE)
    
  • e|--3-----------5---2------5------0-----3------2-----3-----
    B|--3-------3------------3---3----1---1---1----3-3/5---5-3-
    G|--0-----0---0----------------2--0---------0--2-----------
    D|------0--------------0----------2-2----------0-----------
    A|----2---------5---2-------------3------------------------
    E|--3------------------------------------------------------
    
    e|--------------5---2------5------0-----3-332200-----------
    B|----------3------------3---3----1---1---33321133-0-------
    G|--------0---0----------------2--0-------------44-0-------
    D|------0--------------0----------2-2----------------------
    A|----2---------5---2-------------3------------------------
    E|--3------------------------------------------------------
    
    
    Verso
    
    Riff 1
    
    e|--------3-------------------------------3-0-----------2h3-2-2h3-------
    
  • >INTRO<
    e|-3----3-5-2---5--0---3--2------3--
    b|-3---3--0-0--3-3-3--1-0-0-3-3s5-5-
    g|-0--0-------4---4--0---0----------
    d|---0-------0------0---------------
    a|--2-------------------------------
    E|-3--------------------------------
    
    e|-3----3-5-2---5--0---3--3-2-2-0-0---
    b|-3---3--0-0--3-3-3--1-0-3-3-3-1-1-3-
    g|-0--0-------4---4--0---0---------4--
    d|---0-------0------0-----------------
    a|--2---------------------------------
    E|-3----------------------------------
    
    e|-3----3-5-2---5--0---3--2------3--
    b|-3---3--0-0--3-3-3--1-0-0-3-3s5-5-
    g|-0--0-------4---4--0---0----------
    d|---0-------0------0---------------
    a|--2-------------------------------
    
  • Intro:
    |--3-------5--2---2--0---0---2-----3--|
    |--3--3---0---3--3-3-1--1-1--3-3/5--5-|
    |--0-0---0----2-2----0-0-----2--------|
    |-------------4--------------0--------|
    |------2------2------2----------------|
    |--3----------------------------------|
    
    |--3-------5--2---2--0---0---3-2-2-0-0----|
    |--3--3---0---3--3-3-1--1-1--3-3-3-1-1----|
    |--0-0---0----2-2----0-0---------------3-3|
    |-------------4------------------------4-4|
    |------2------2------2--------------------|
    |--3--------------------------------------|
    
    |--3-------5--2---2--0---0---2-----3--|
    |--3--3---0---3--3-3-1--1-1--3-3/5--5-|
    |--0-0---0----2-2----0-0-----2--------|
    |-------------4--------------0--------|
    |------2------2------2----------------|
    |--3----------------------------------|
    
    |--3-------5--2---2--0---0---2--|
    |--3--3---0---3--3-3-1--1-1--3--|
    |--0-0---0----2-2----0-0-----2--|
    |-------------4--------------0--|
    |------2------2------2----------|
    |--3----------------------------|
    
    
    Verso:
    
    |------3-------2--------0-------
  •   Em        D           C        (Este pedacito va rápido)
    I-7------|-5-------|-3------|------------------|
    I-8---8--|-7---7---|-5---5--|---3-0-----0----0-|
    I-9--9---|-7--7-7--|-5--5---|--2------------0--|
    I-9-9----|-7-7-----|-5-5----|-0------------2---|
    I-7------|-5-------|-3------|------------------|
    I--------|---------|--------|-----------3------|
    
    (Este ya va normal...)
    I----------------------|----------------------|
    I-----1--0-------3-----|-0----0---------------|
    I---0-------2------2---|-----0---2--0---3-1-0-|
    I-2------------0-----0-|----2-----------------|
    I----------------------|----------------------|
    I--------3--2----------|-3-------0--0---------|
    
    I-----------------------|---------------0-------|
    I-1----1--0-------3-----|-0----0----------3-1-0-|
    I-----0------2------2---|-----0---2--0----------|
    I----2----------0-----0-|----2------------------|
    
  • e------0-0-0---------0------0-3------------------0----
    B-0-1-3--1-1-1h3-0---1-1-1-3----0-0-0-0-0h1-------0---
    G--------2-0---------2----------0-2---------2---0--0--
    D--------2-2---------0----------0-0------------2----2-
    A--------0-0---------0----------2-0-----------2-------
    E--------0-3---------2----------3-2----------0--------
    
    e-----------0-0--------------------x--------0-2-3-2-5-3-2-
    B-0-0h1h3p0-1-1?1-1-1h3p0---1p0----x-1-1-1-3--------------
    G-----------2-0------------2-------x----------------------
    D-----------2-2------------0-------x----------------------
    A-----------0-0------------0-------x----------------------
    E-----------0-3------------2-------x----------------------
    
    e-0-2------------------0-----------------------------------
    B---3-1-----0-0-0h1-----0----------0h1-------------------0-
    G-------0-2-----------0--0----0-0h2------2-0--2-0-------0--
    D-------0-0----------2----2-----------------2----4-----4---
    A-------2-0---------2-------------------------2-------2----
    E-------3-2--------0---------------------2-----------0-----
    
  • Ok,es la versión del Unplugged,comienza con violines y cellos,
    luego al terminar el bajo comienza a hacer esto:
    
    Intro:
    
    G---------------------|---|---12-12-12-12-12----|---11-11----|
    D-------------12-12---|-9-|-10--------------10--|-12-----12--|
    A-10---10-10-------10-|---|---------------------|------------|x2
    E---------------------|---|---------------------|------------|
    
    En esta parte es cuando comienza la armónica:
    
    G-------|------|-----|------|-----|------|-----|
    D-------|------|-----|------|-----|------|-----|
    A-------|------|--2--|------|--3--|------|--5--| x 2
    E---3---|------|-----|------|-----|------|-----|
    
    Versos: (esto se hace en todos los versos 8 veces)
    
    G---------------------|---|---12-12-12-12-12---|----11-11----|
    D------------12-12----|-9-|-10--------------10-|-12-------12-|
    A-10---10-10-------10-|---|--------------------|-------------|x8
    E---------------------|---|--------------------|-------------|
    
    Pero no puedo...
    
    G------|-------|-------|-------|-------|-------|-
  • vivir sin aire(armonica en sol)
     Soy mauro... viva MANÁ!!!
    
    *: arrastre
    
    /:tiempo mantenido soplando o aspirando
    
    ( ): aspirado
    
    nº sin ( ):soplado
    
    u y e : tratando de pronunciar la u y la e,en el casillero,
     se llega a los semitonos.
    
    _: tiempo en silencio
    
    
    
    intro
    
    3*7 / / / /(6)uueueueueueueue  _ 6 (6) 6 (6)ue 6 5 _
    
    5 (5)ue 5 (5)ue 5 4 (4)ueeee
    
    Final
    
    6 / / 6 (7) 7 / 6 uueue (6)ue 6 / (5)ueeeee 5
  • +
    ¡Colabora con nosotros!
    Envíanos tu versión de esta canción
  • Tutorial
    HD
    Como tocar Vivir sin Aire en guitarra acustica
    4:33

Letra de Vivir Sin Aire (unplugged)
Como quisiera poder vivir sin aire
Como quisiera poder vivir sin agua
Me encantaria quererte un poco menos
Como quisiera poder vivir sin ti
Pero no puedo siento que muero
Me estoy ahogando sin tu amor
Como quisiera poder vivir sin aire
Como quisiera calmar mi aflicciòn
Como quisiera poder vivir sin agua
Me encantaria robar tu corazón
(Se repite el Intro)
Como pudiera un pez nadar sin agua
Como pudiera un ave volar sin alas
Como pudiera la flor crecer sin tierra
Como quisera poder vivir sin ti
Pero no puedo siento que muero
Me estoy ahogando sin tu amor
Como quisiera poder vivir sin aire
Como quisiera calmar mi aflicciòn
Como quisiera poder vivir sin agua
Me encantaria robar tu corazón
(El mismo orden de los acordes para los siguientes versos)
Como quisera lanzarte al olvido
Como quiera guardarte en un cajón
Como quisiera borrarte de un soplido
Me encantaria matar esta canción...(final)




[Vivir Sin Aire (unplugged) acordes][Vivir Sin Aire (unplugged) chords]
© LaCuerda.net · notícia legal · privacidade · es · en · pt · contato
DINAMICO