Cifras para Violão e Guitarra » M »La Mancha de Rolando » Arde la ciudad (Tab)

Arde la ciudad
La Mancha de Rolando

Letras, cifras e tablaturas para violão, guitarra, piano, ukulele e baixo

  • C           G        Am     F
    Tu equipo volvio a ganar
    C          G          Am        Am
    te prendieron mil bengalas hoy
    C          G     Am          F
    la banda grita, tu nombre y ves
    C         G        Am          Am
    como la popular, se va a caer
    
    
    Dm                        G      G
    Pero tu estrella no esta mas
    Dm                G    F  G
    se la llevo la maña-na-a  OHHH
    
    
    Estribillo:
    
    C          G
    Arde la ciudad
    
  • INTRO: C G Am F C G F (con o sin punteo)
    
    C           G         F
    Tu equipo volvio a ganar
    C          G          F
    te prendieron mil bengalas hoy
    C          G    Am           F
    la banda grita, tu nombre y ves
    C        G           F
    como la popular, se va a caer
    
    
    Dm                        G
    Pero tu estrella no esta mas
    Dm                G    F  G
    se la llevo la maña-na-a  OHHH
    
    
    Estribillo:
    
    
  •     C                   G   Am
    e|--0----0--------------3---0----0--------------------------
    B|--1------1------------0---1------1------------------------
    G|--0--0-----0----------0---2--2-----2----------------------
    D|--2-------------------0---2-------------3-2---3-2-0-------
    A|--3-----------2-3-4---2---0-----------------3-------3-----
    E|--0-------------------3---0-------------------------------
    
       C                   G    F              F
    |--0----0--------------3----1-----1--------1-----1--------|
    |--1------1------------0----1-------1------1-------1------|Fin de
    |--0--0-----0----------0----2---2-----2----2---2-----2----|la intro.
    |--2-------------------0----3--------------3--------------|
    |--3-----------2-3-4---2----3--------------3--------------|
    |--0-------------------3----1--------------1--------------|
    
    
    C           G        F
    Tu equipo volvio a ganar
    C          G          F
    
  •                C                G              Am           F
    e|---------------|-------------|--------------|-------------
    B|---------1-----|---------0---|-------1------|-------1-----
    G|-------0---0---|-------0---0-|-----2---2----|-----2---2---
    D|-----2-------2-|-----0-------|---2-------2--|---3-------3-
    A|---3-----------|-------------|-0------------|-------------
    E|---------------|-3-----------|--------------|-1-----------
    
            C              G                     F7                      C
    e|---------------|-------------|-----------------------------------|---||
    B|---------1-----|---------0---|-------1-------1--------1----------|---||
    G|-------0---0---|-------0---0-|-----2-----2--------2--------2---2-|---||
    D|-----2-------2-|-----0-------|---3---------3--------3--------3---|---||
    A|---3-----------|-------------|-0---------------------------------|-3-||
    E|---------------|-3-----------|-----------------------------------|---||
    
    2da guitarra:
        C        G        Am        F          C        G      F7
    e|------|----------|-----|--------------|-----|----------|-----|
    B|------|----------|-----|--------------|-----|----------|-----|
    
  •     F7       C       G      Am      Dm       F
    
    e|---x---|---0---|---3---|---0---|---1---|---1---||
    B|---1---|---1---|---3---|---1---|---3---|---1---||
    G|---2---|---0---|---0---|---2---|---2---|---2---||
    D|---3---|---2---|---0---|---2---|---0---|---3---||
    A|---0---|---3---|---2---|---0---|---x---|---3---||
    E|---x---|---0---|---3---|---0---|---x---|---1---||
    
    
    intro:
    
    1ra  guitarra:
    
           C                G              Am           F
    e|---------------|-------------|--------------|-------------
    B|---------1-----|---------0---|-------1------|-------1-----
    G|-------0---0---|-------0---0-|-----2---2----|-----2---2---
    D|-----2-------2-|-----0-------|---2-------2--|---3-------3-
    A|---3-----------|-------------|-0------------|-------------
    
  • Verso:
    (Do-Sol-La-Fa)
    
    G|------------------------------------|
    D|------------------------------------|
    A|------------------------------------|  x4
    E|--8-88-8--3-33-3--5-55-5--1-1-1111--|
    
    
    Estribillo:
    
    G|------------------------------------|
    D|------------------------------------| Igual que el verso (x4)
    A|------------------------------------|
    E|--8-88-8--3-33-3--5-55-5--1-1-1111--|
    
    y ahora les dejo la parte que toca Re y Sol y al final Fa :
    " .. Pero tu estrella no esta mas, se la llevo la mañana .. "
                                y
    " .. Es una fiesta, el bodegón, donde se junta la hinchada .."
    
    que haí toca lo siguiente :
    
    G|----------------------------------------|
    D|----------------------------------------|
    A|----------------------------------------|
    E|--10-1010-10-10-1010-10--3-33-3-3-33-3--|
    
    G|-------------------------------------------|
    D|-------------------------------------------|
    A|-------------------------------------------|
    E|--10-1010-10-10-1010-10--3-33-3--1-1-1111--|
    
  • +
    ¡Colabora con nosotros!
    Envíanos tu versión de esta canción
  • Tutorial
    tutorial de como tocar arde la ciudad en la guitarra
    8:46

Letra de Arde la ciudad
Tu equipo volvio a ganar
te prendieron mil bengalas hoy
la banda grita, tu nombre y ves
como la popular, se va a caer
Pero tu estrella no esta mas
se la llevo la maña-na-a OHHH
Estribillo:
Arde la ciudad
llueve tu mirada gris
la gente festeja
y vuelve a reir
pero este carnaval
hoy no te deja dormir
mires donde mires
ella esta ahi
Tu vida siempre fue asi
te da y te quita por nada
y aunque estes solo... sin corazon
ahora tenes que suguir la funcion
Y es una fiesta el bodegon
donde se junta la hincha-da-a ohhhh
Arde la ciudad
llueve tu mirada gris
la gente festeja
y vuelve a reir
pero este carnaval
hoy no te deja dormir
mires donde mires
ella esta ahi
Y es una fiesta el bodegon
donde se junta la hincha-da-a ohhhh
Arde la ciudad
llueve tu mirada gris
la gente festeja
y vuelve a reir
pero este carnaval
hoy no te deja dormir
mires donde mires
ella esta ahi




[Arde la ciudad acordes][Arde la ciudad chords]
© LaCuerda.net · notícia legal · privacidade · es · en · pt · contato
DINAMICO