Cifras para Violão e Guitarra » M »Marcela Gandara » Supe que me amabas (Tab)

Supe que me amabas
Marcela Gandara

Letras, cifras e tablaturas para violão, guitarra, piano, ukulele e baixo

  • G             C                    G
    Desde el principio cuando te necesite.
    G             C                     D
    Desde el momento cuando la mirada alce.
    D          Em                      C
    Desde ese dia cuando sola me encontraba.
            Am          D              G
    Cuando tu mirada en mi se fue a poner.
    
    CORO
    
    G             C            D
    Supe que me amabas, lo entendi.
                 Em           C
    Supe que buscabas mas de mi.
               Am
    Que mucho tiempo me esperaste.
            D
    Y no llegue.
    
    
  •    D    G      D        G  A  Asus   Bm
    E---------------------------------------
    B---3-2---0 -------3-2------------------
    G-2----0----3-o---2---0-----------------
    D---------------------------------------
    A---------------------------------------
    E---------------------------------------
    
    
     Bm                G           A        D
    Desde  el  principio  cuando  te  necesite.
    D          G                             A
    Desde  el  momento  cuando  la  mirada  alce.
                Bm                            G
    Desde  ese  dia  cuando  sola  me encontraba.
            Em                   A            D
    Cuando  tu  mirada  en  mi  se  fue  a  poner.
    
    
             CORO
    
  •      Bb(add9)/D Eb(add9)           Bb
    DESDE EL PRINCIPIO CUANDO TE NECESITE
          Bb(add9)Eb(addd9)              F
    DESDE EL MOMENTO CUANDO LA MIRADA ALCE
             Gm7(add11)                Eb(add9) Bb(add9)/D
    DESDE ESE DIA CUANDO SOLA ME ENCONTRABA
           Cm7           Fsus4         Bb
    CUANDO TU MIRADA EN MI SE FUE A PONER
    
                   = CORO =
    
    Bb(add9)/D    Eb(add9) Gm7(add11)-F
    SUPE QUE ME AMABAS,   LO ENTENDI,
               Gm7(add11)    Eb(add9)
    SUPE QUE BUSCABAS MAS DE MI
        Bb(add9)/D  Cm7          Eb/Bb          F/A
    QUE MUCHO      TIEMPO ME ESPERASTE Y NO LLEGUE
    
    Bb(add9)/D    Eb(add9)   Gm7(add11) F
    SUPE QUE ME AMABAS,     AUNQUE     HUI
    
  • Intro: A#sus2 - D# sus2 - A# sus2 -  D# sus2 - F - A# sus2
    
                 D# sus2               A# sus2
    Desde el principio cuando te necesite.
                D# sus2                  F
    Desde el momento cuando la mirada alce.
              Gm7                     D# sus2     D#/D
    Desde ese día cuando sola me encontraba.
           Cm7           F            A# sus2
    Cuando tu mirada en mi se fue a poner.
    
    CORO
    A# sus2  Dm7        D# sus2        F
    Supe     que  me  amabas, lo entendí
                Gm7          D# sus2   D#/D
    Supe que buscabas más de mí.
               Cm7           D#sus2/A#
    Que mucho tiempo me esperaste
    
             Dm7(el bajo acompaña este acorde con la nota F)
    
  • Bbsus Ebsus Bbsus Ebsus F Bbsus
    
    
          F       Ebsus2             Bbsus2
    DESDE EL PRINCIPIO CUANDO TE NECESITE
             F   Ebsus2                  F
    DESDE EL MOMENTO CUANDO LA MIRADA ALCE
              Gm             F        Ebsus2
    DESDE ESE DIA CUANDO SOLA ME ENCONTRABA
           Cm           F            Bbsus2
    CUANDO TU MIRADA EN MI SE FUE A PONER
    
                   = CORO =
    
     F           Ebsus2          F
    SUPE QUE ME AMABAS, LO ENTENDI,
               Gm     F     Ebsus2
    SUPE QUE BUSCABAS MAS DE MI
               Cm          Ebsus2           F
    QUE MUCHO TIEMPO ME ESPERASTE Y NO LLEGUE
    
  •                  D             A                D        E        A
    E-----6-5s6s5----------------------0-6-5s6s5----------6-5------8-6---
    B---6---------6s8--6h8-6-----------6---------6s8--6-8-----6-10-------
    G------------------------5-5-5h7-------------------------------------
    D--------------------------------------------------------------------
    A--------------------------------------------------------------------
    E--------------------------------------------------------------------
    
    
    “en esta primera estrofa solo den rasgueos en cada acorde”
    
                   D                     A
     DESDE EL PRINCIPIO CUANDO TE NECESITE
                D                        E
    DESDE EL MOMENTO CUANDO LA MIRADA ALCE
              F#m                       D
    DESDE ESE DIA CUANDO SOLA ME ENCONTRABA
           Bm           E               A    A --- “este acorde solo es un
    CUANDO TU MIRADA EN MI SE FUE A PONER          rasgueo antes del coro ok”
    
    
  • bajarle ½ A LA guitarra  o sea en vez de ser  e-B-G-D-A-E  lo dejan
    en Eb-Bb-Gb-Db-Ab-Eb   para que puedas tocar igual que el.
    Cuando bajes ½ tono a la guitarra colocas el cejillo en el 2do espacio.
    Si ya colocaste el cejillo olvídate de que esta en el 2do espacio y
    desde allí empiezas a contar 1er. Espacio, 2do espacio, 3er espacio y etc.
    Para que puedas hacer los acordes de abajo con el tono que es Bb.
    
    
      Tono: Bb
    
       Intro.
    
           Asus2/C#    Dsus2      Asus2/C#
        e|---5-4h5h4-------------------------|
        B|--5---------7-5h6h7-5--------------|
        G|-----------------------4-4s6-------|
    
                     Dsus2    E       Asus2/C#
        e|---5-4h5h4--------5-4----4-7-5-----|
        B|--5---------7----7-----5-----------|
    
  • LA entrada
    
    e----6-5-------------------------6-5----------6-5---8-----
    B--6------6s8--6h8--6---------6------6h8----8------8------
    G----------------------5-5h7--------------7-------7-------
    D---------------------------------------------------------
    A---------------------------------------------------------
    E---------------------------------------------------------
    
    la primera estrofa puedes ir tocando y catando
    
    e---------------------------------------------------------
    B--3-4---4h6--4-3-4-3-------33--3-4---4h6--4-3-4-3-4--6h8-6-
    G---------------------5---5---------------------------------
    D---------------------------------------------------------
    A---------------------------------------------------------
    E---------------------------------------------------------
    
    segunda estrofa
    
    
  • +
    ¡Colabora con nosotros!
    Envíanos tu versión de esta canción
  • Tutorial
    Tutorial de Guitarra - Supe que me Amabas - Más Como Jesús
    15:25
  • Tutorial
    supe que me amaba intro guitarra tutorial
    6:28

Letra de Supe que me amabas
DESDE EL PRINCIPIO CUANDO TE NECESITE
DESDE EL MOMENTO CUANDO LA MIRADA ALCE
DESDE ESE DIA CUANDO SOLA ME ENCONTRABA
CUANDO TU MIRADA EN MI SE FUE A PONER
SUPE QUE ME AMABAS, LO ENTENDI,
SUPE QUE BUSCABAS MAS DE MI
QUE MUCHO TIEMPO ME ESPERASTE Y NO LLEGUE
SUPE QUE ME AMABAS, AUNQUE HUI
LEJOS DE TU CASA YO ME FUI
Y CON UN BESO Y CON AMOR
ME REGALASTE TU PERDON, Y ESTOY AQUI.
=ESTROFA=
Y CUANDO LEJOS ME ENCONTRABA TE SENTI
SABIA QUE ENTONCES ME CUIDABAS Y TE OI
COMO UN SUSURRO FUE TU VOZ EN EL SILENCIO
CADA DIA ME ATRAIAS HACIA A TI
= FINAL =




[Supe que me amabas acordes][Supe que me amabas chords]
© LaCuerda.net · notícia legal · privacidade · es · en · pt · contato
DINAMICO