Cifras para Violão e Guitarra » M »Marcos Vidal » El milagro (Tab)

El milagro
Marcos Vidal

Letras, cifras e tablaturas para violão, guitarra, piano, ukulele e baixo

  •       Am7         Em7                  Fmaj7
    Aun no puedo asimilar lo que me ha sucedido
         Am7          Em7                F   G/A  A/C#
    El milagro más glorioso que yo he vivido
          Dm7            Em7                Am7 E/G# C/G
    Que después de malgastar lo que no era mío
             Dm7  C/5+/B   E
    No he tenido   que     pagar
    
    (Igual)
    Traicione a aquel que me perdonó la vida
    Humille al que sano toda mi herida
    Y en mi huida coseche lo que merecía
    
            Fmaj7           G
    Y desvanecido en mi dolor
                Fmaj7              G
    En algún momento el me encontró
    
    Coro:
    
  • Am              Em                   F
    Aún no puedo asimilar lo que me ha sucedido,
    Am            Em            F
    el milagro más glorioso que yo he vivido, 
    Dm                         Am
    que después de malgastar lo que no era mío 
    F                   E
    no he tenido que pagar ; 
    
    Am                  Em        F      
    traicioné a aquel que me perdonó la vida, 
    Am             Em      F      
    humillé al que curó toda mi herida, 
    Dm                         Am      
    y en mi huida coseché lo que merecía, 
    F                  G      
    y desvanecido en mi dolor 
    F                        G
    en algún momento Él me encontró, 
    
    
  • Intro: F-G-F-G-F-G
    
            Am           Em                 F
    Aun no puedo asimilar lo que me ha sucedido
          Am           Em                F   A
    El milagro más glorioso que yo he vivido
           Dm               E               Am
    Que después de malgastar lo que no era mío
             D          E
    No he tenido que pagar
           Am             Em             F
    Traicioné a aquel que me perdonó la vida
        Am             Em          F    A
    Humillé al que curó toda mi herida
              Dm            E         Am
    Y en mi huida coseché lo que merecía
              F            G
    Y desvanecido en mi dolor
               F                G
    En algún momento Él me encontró
    
  • E|-------------------------------------------------------
    B|--------3-3s5-5-5-6------8-6-5---5-5-5-6---------------
    G|--2-4-5-------------5s7--------7---------5s7------5p4h5
    D|-------------------------------------------------------
    A|-------------------------------------------------------
    E|-------------------------------------------------------
    
    Esta se la toca en modo arpegio suavemente siguiendo el ritmo de la
    tonada..
    
    Am              Em                   F
    Aún no puedo asimilar lo que me ha sucedido,
    Am              Em                  F     A7sus4 - A7
    el milagro más glorioso que yo he vivido,
    Dm              G5/D                    Am
    que después de malgastar lo que no era mío
    F                     E
    no he tenido que pagar ;
    
    Am                   Em           F
    
  • e--------------0--0--0--1--------3--1--0--1--0--0--0--1---------|
    B-----0--1--3--1--1--1--3--3-----5--4--1--3--1--1--1--3--3------|
    G--2--0--2--4--------------4-----------------------------4------|
    D--2------------------------------------------------------------|
    A---------------------------------------------------------------|
    E---------------------------------------------------------------|
    
    e--10-7-8----7----------------------------------7--3------------|
    B---------10---8-10----8---------------------10----0------------|
    G-------------------10---9-7-----------------------0------------|
    D----------------------------9-10-7-9----7----------------------|
    A-------------------------------------10---8--------------------|
    E--------------------------------------------------3------------|
    
    I Estrofa
    Am                 Em                 F
    Aún no puedo asimilar lo que me ha sucedido,
    Am                 Em                F             A
    el milagro más glorioso que yo he vivido,
    Dm                 G                  Am      E
    
  • e---------------------------3------------------------------------|
    B----0-1-3-3´5--5-5-6--1´3----6-5-3-3´5--5-5-6--1´3--1-0-1--3´5-3
    G--2-------------------------------------------------------|
    D--------------------------------------------------------------|
    A---------------------------------------------------------------|
    E---------------------------------------------------------------|
    
    (´)= arrastrar
    
    I Estrofa
    Am                 G*                 F*
    Aún no puedo asimilar lo que me ha sucedido,
    Am                  G*               F*           A*
    el milagro más glorioso que yo he vivido,
    Dm                                   Am
    que después de malgastar lo que no era mío
    F                   E
    no he tenido que pagar ;
    Am                    G*             F*
    traicioné a aquel que me perdonó la vida,
    
  • +
    ¡Colabora con nosotros!
    Envíanos tu versión de esta canción

Letra de El milagro
Aún no puedo asimilar lo que me ha sucedido,
el milagro más glorioso que yo he vivido,
que después de malgastar lo que no era mío
no he tenido que pagar ;
traicioné a aquel que me perdonó la vida,
humillé al que curó toda mi herida,
y en mi huida coseché lo que merecía,
y desvanecido en mi dolor
en algún momento Él me encontró,
Y he despertado en el redil, no sé como,
entre algodones y cuidados del Pastor,
y antes de poder hablar de mi pasado,
me atraviesan Sus palabras y Su voz :
Que se alegra tanto de que haya vuelto a casa,
que no piense, que descanse, que no pasa nada,
y dormido en su regazo, lo he sabido,
tengo Vida, tengo Dueño y soy querido.
(se repiten las notas)
He aprendido la lección del amor divino,
que me transformó, cruzándose en mi camino,
y que dio a mi vida entera otro sentido,
otra meta y otro fin ;
yo no sé lo que traerá para mi el mañana,
pero sé que nunca se apagará su llama,
salga el sol por donde quiera, Él me ama,
sé lo que es la gracia y el perdón,
su misericordia es mi canción ...
la noten si tienen algun comentario escriban al e-mail.




[El milagro acordes][El milagro chords]
© LaCuerda.net · notícia legal · privacidade · es · en · pt · contato
DINAMICO