Cifras para Violão e Guitarra » M »Martin Valverde » El Diario De María (Tab)

El Diario De María
Martin Valverde

Letras, cifras e tablaturas para violão, guitarra, piano, ukulele e baixo

  • Am                          Dm      
    Te miro a los ojos y entre tanto llanto
           G                   C      
    Parece mentira que te hallan clavado
      C7      F    G               Em      
    Que seas el pequeño al que he acunado 
    Am              Dm   G                           C
    Y que se dormía  tan pronto en mis brazos,
                     F    G               Em
    El que se reía al mirar el cielo 
           Am         Dm     G       C
    y cuando rezaba  se ponía serio.
    
    E                   Am                 Dm      
    Sobre ese madero, veo al pequeño 
                    G                        C            
    Que entre los doctores hablaba en el templo
                       F        G                      Em
    Que cuando pregunté, respondió con calma
    Am                 Dm   G                        C
    
  • Am           Gm/E    A                 Dm                         
    Te miro a los ojos,     y   entre tanto llanto
           G                    Gm/C
    parece mentira que te hayan clavado.
           F        G/F              Em       Am
    Que seas el pequeño   al  que he acunado,
           Dm   G                           Gm        C7
    y que se dormía    tan   pronto en mis brazos,
            F   G/F                  Em   Am
    el que se reía   al   mirar el cielo
              Dm   G               C       Dm/B   E7
    y cuando rezaba   se   ponía  serio.
    
             Am  Gm/E  A                        Dm
    Sobre este madero          veo    aquel pequeño
            G                            Gm         C7
    que entre los doctores hablaba en el templo,
                  F   G/F                  Em     Am     
    que cuando pregunté,    respondió con calma
                Dm      G                 Gm       C7 
    
  • Intro: Am - A/D7 - C - F - Bb - E - Am - E/D
    
    
    e|------------------3-1-0--------------------------------|
    B|-3/5-3-1-0-0-0/1.-------3-3-3/5.--5/6-5-3--1-1/3...----|
    G|-------------------------------------------------------|
    D|-------------------------------------------------------|
    A|-------------------------------------------------------|
    E|-------------------------------------------------------|
    
    e|---5----------------------------|
    G|------7-5-4-7-5-4-5-7.--(2-2/4)-|
    D|-6------------------------------|
    A|--------------------------------|
    E|--------------------------------|
    
             Am     A/D7              Dm
    Te miro a los ojos y entre tanto llanto
            G      G7             C   C7
    Parece mentira que te hallan clavado
    
  • A|0-----0-0---0--0-0-0--0--0--0--0-5--5-5-|
     Te miro a los ojos y entre tanto llanto
    
    A|-------------------------------3-3-|
    E|---------3---3---3--3------3--3----|
     Parece mentira que te hallan clavado
    
    A|--3--3----------------------7--7--7---|
    E|-------1--1-3-----3--3---3-3----------|
     Que seas el pequeño al que he acunado 
    
    A|---------------5---5--------------------------3-3--|
    E|5---5--5----5--------3----3--3---3---3-------------|
     Y que se dormía  tan pronto en mis brazos,
    
    A|3----3--3--3--3-------------------7-7--|
    E|----------------1-1-3-3--3--3-3--------|          
     El que se reía al mirar el cielo 
    
    A|------------------5---5---------3-3-|
    E|-------5---5--5---------3--3-3------|      
     y cuando rezaba  se ponía serio.
    
    
    A|--------------------------------5-5-|
    E|0---0---0--0-0--0--5-5-5--5--5------|
     Sobre ese madero, veo al pequeño 
    
    A|5--5--5--5--5------------------------------5-5-|
    E|----------------3----3---3---3--3--3----3------|	
     Que en
  • +
    ¡Colabora con nosotros!
    Envíanos tu versión de esta canción

Letra de El Diario De María
Te miro a los ojos y entre tanto llanto
Parece mentira que te hallan clavado
Que seas el pequeño al que he acunado
Y que se dormía tan pronto en mis brazos,
El que se reía al mirar el cielo
y cuando rezaba se ponía serio.
Sobre ese madero, veo al pequeño
Que entre los doctores hablaba en el templo
Que cuando pregunté, respondió con calma
Que de los asuntos de Dios se encargaba,
Ese mismo niño, el que está en la cruz
El Dios de los hombres se llama Jesús
Ese mismo hombre, ya no era un niño
Y en aquella boda le pedí más vino
Que dio de comer a un millar de gentes
Y a pobres y enfermos los miró de frente
Rió con aquellos a quienes más quiso
Y lloro en silencio cuando murió su amigo
Ya cae la tarde, se nublan los cielos
Pronto volverás atu padre eterno.
Duérmete pequeño, duérmete mi niño
Que yo te he entregado todo mi cariño
Como en Nazaret aquella mañana
He aquí tu sierva, he aquí tu esclava.
Saludos cordiales, desde Costa Rica, preguntas sugerencias:
aparicio_diego@hotmail.com




[El Diario De María acordes][El Diario De María chords]
© LaCuerda.net · notícia legal · privacidade · es · en · pt · contato
DINAMICO