Cifras para Violão e Guitarra » M »Mercedes Sosa » Zamba para olvidar (Tab)

Zamba para olvidar
Mercedes Sosa

Letras, cifras e tablaturas para violão, guitarra, piano, ukulele e baixo

  • LA7 REm DO FA LA7 REm
    LA# LA7 REm LA7 REm
    
      REm    LAm7     REm  LAm7 REm      LAm7     REm
    No se para que volviste  si ya empezaba a olvidar
      LA#             LAm LA#         SOLm       LA7
    no se si ya lo sabras llore cuando vos te fuiste
     LA#            LAm        REm          DO  REm LA7
    no se para que volviste que mal me hace recordar.
    
      REm         LAm7     REm LAm7 REm LAm7     REm  DOm7 FA7
    La tarde se ha puesto triste y yo prefiero callar
      LA#              LAm  LA#         SOLm      LA7
    para que vamos a hablar de cosas que ya no existen
     LA#            LAm       REm          DO     REm      DO LA#
    no se para que volviste ya vez que es mejor no hablar
    
        LA7        REm                       LA#       SOLm   LA7
    Que pena me da saber que al final de ese amor ya no queda nada
    LA#maj7           SOLm      LA#     SOLm   LA7
    
  • Dm          C   Dm
    No se para que volviste
    Dm         C     Dm
    si yo empezaba a olvidar
    Bb               Am    Bb                   A
    No se si ya lo sabras llore cuando vos te fuiste
    Bb                Am         Dm         C      Dm
    No se para que volviste, que mal me hace recordar
    -II-
    Dm             C       Dm
    La tarde se ha puesto triste
    Dm       C       Dm
    y yo prefiero callar
    Bb                 Am        Bb            A
    Para que vamos a hablar de cosas que ya no existen
    Bb                 Am      Dm          C        Dm
    No se para que volviste ya ves que es mejor no hablar
    
    Estribillo
        A7          Dm
    
  •                                        C7
    e0-3-1-0-------------------------------------------------8s0----5-6-7-8v-7s8-9v
    b--------3----2s3-3s5-5------3s5-5s6-6---------5s6-8----8----------------------
    g---------0----------------------------------3---------5--------2-3-4-5v-4s5---
    d-------------2s3-3s5-5------3s5-5s7-7------5----------------3-----------------
    a-----------0-----------0-0-0----------0-0-3----------7------------------------
    E------------------------------------------------------------------------------
    
                            E°7  G°7
    e-----9-6-5v--3-1-0h1--5----3----6----5---
    b-----------------------------------------
    g----9--7-6v--3-2------5-5--3-3--6-6--5-5-
    d---8-----------0------3----2----5----3---
    a-0---------------------------------------
    E-----------------------------------------
    
         A#°7/C#°7  Dm          A7
    e-------9-/-12----10---------x----0-----0h1-
    b-------8-/-11----10--10-----x--2---3--3----
    g-------9-/-12----10----10---x--0---2-2-----
    
  • e|-0-3-1-0----------------------------------------------------------8--|
    B|---------3----2--3--5-----3--5--6---------------5-6s8-8------8-------|
    G|----------------------------------------------3------------5---------|
    D|--------------2--3--5-----3--5--7----------5-------------------------|
    A|-----------0----------0-0---------0--0-3-----------------7-----------|
    E|---------------------------------------------------------------------|
    
    e|----5s6----7--8---7s8-----9-----6-5-------3----1------------------|
    B|------------------------------5--------------------1--------------|
    G|------------------------------------6-------3------2--------------|
    D|--3----5-----6--7---6s7-------------------------0-----------------|
    A|----------------------------0----------0--------------------------|
    E|------------------------------------------------------------------|
    
    e|-0--1--5----3----6-----5-----9s12---10---------1-------0--1----------|
    B|----------3---3-----6---5-----------------2----------3--------------|
    G|----------3---3-----6---5----9s12----10------------2----------------|
    D|-------3----2-----5----3--------------0---2------0------------------|
    A|--------------------------0-----------------0-----------------------|
    E|--------------------------------------------------------------------|
    
  • +
    ¡Colabora con nosotros!
    Envíanos tu versión de esta canción
  • Tutorial
    HD
    Tutorial Zamba para Olvidar - Ukelele
    9:38
  • Tutorial
    HD
    como tocar ZAMBA PARA OLVIDAR en guitarra
    10:06

Letra de Zamba para olvidar
No se para que volviste si ya empezaba a olvidar
no se si ya lo sabras llore cuando vos te fuiste
no se para que volviste que mal me hace recordar.
La tarde se ha puesto triste y yo prefiero callar
para que vamos a hablar de cosas que ya no existen
no se para que volviste ya vez que es mejor no hablar
Que pena me da saber que al final de ese amor ya no queda nada
y hace rato que te extraña mi zamba para olvidar.
Mi zamba vivio conmigo parte de mi soledad.
no se si ya lo sabras...mi vida se fue contigo
Contigo mi amor, contigo, que mal me hace recordar
Mis manos ya son de barro tanto apretar al dolor
y ahora que me falta el sol no se que venis buscando.
Llorando mi amor llorando tambien olvidame vos.
Que pena me da saber que al final de ese amor ya no queda nada
y hace rato que te extraña mi zamba para olvidar.




[Zamba para olvidar acordes][Zamba para olvidar chords]
© LaCuerda.net · notícia legal · privacidade · es · en · pt · contato
DINAMICO