Cifras para Violão e Guitarra » M »Miel San Marcos » Canto, danzo, salto (Tab)

Canto, danzo, salto
Miel San Marcos

Letras, cifras e tablaturas para violão, guitarra, piano, ukulele e baixo

  •  Cm                   Ab     Bb            Gm
    E|-10-8-10-8-10-8---11-10-10-8--//6-6-6-6-6-8//---8-8-10-|
    B|-------------------------------------------------------|
    G|-------------------------------------------------------|
    D|-------------------------------------------------------|x2
    A|-------------------------------------------------------|
    E|-------------------------------------------------------|
            Cm
    E|--6-8------|
    B|-----------|
    G|-----------|
    D|-----------|
    A|-----------|
    E|-----------|
    
    
    Cm              Ab
      Mi pasado borro
                      Fm
      Mi tristeza quito
    
  • //Cm            G#              Bb             G   G# Bb C// Bb C
    Intro 2x  cuerdas
    e --11--9--11--9--11--9--12--11--11--9--
    b --12-12-12-12-12-14---12-12-12-12-12-14---13-14-16
    
    
     Cm               G#                  Fm                 G#    Bb
    //Mi  pasado  borro mi  tristeza  quito  hoy nueva  creatura  soy  en
    Cm                    G#                       Fm      G#
    el  no  mas  condenación  hecho  fuera  el  temor danzare  con
          G   Bb Cm
    libertad….//
          Cm                         G#            Bb
    Hoy  canto  danzo  salto  para  cristo  somos  la  generación  que
      G
    alegra  su  corazón
    Cm                           G#         Bb
    canto  danzo  salto  para  cristo  los  jóvenes  y  ancianos
         G
    juntamente  nos  alegramos
    
  • Intro:  Cm
            Canto, danzo, salto para Cristo. (Libre)
    
    ||: Cm – (Bb) | Abmaj7 | Bb | G7 :||
    
    
    (Bb)Cm          Abmaj7              Fm7
    V1) Mi pasado borró, Mi tristeza quitó
                      Ab    Bb    Cm
        Hoy nueva criatura soy en Él.
                      Abmaj7                 Fm7
        No más condenación, Echo fuera el temor
              Ab          G7
        Danzaré con libertad. (Bis)
    
    
           Cm                  (Bb) Ab
    C)Hoy canto, danzo, salto para Cristo
            Bb                    G7
      Somos la generación - Que alegra su corazón
    
  • DIOS LES BENDIGA
    
    Les dejo tambien la intro en el bajo
    para que toquen esta alabanza
    
    Esta facil la intro solo hay que oir los tiempos
    
    
    SON LAS NOTAS ORIGINALES
    
    Cualquier duda escribanme a walterj33-3@hotmail.com
    
    visiten
    
    http://www.youtube.com/user/walterj333?feature=mhum
    
    estarè subiendo un video de la intro
    
    GUATEMALA 17 ENERO DE 2011
    
    
    
    
    
    CANTO, DANZO, SALTOE
    
    
    sto va 2 veces
    G------------------------------
    D----------------1-3-----------
    A---1-1------1-3---------------
    E--------3---------------------
    
    
    Después va esto una vez
    G----------------------------5-3--
    D----------------1-3---5-5--------
    A---1-1------1-3------------------
    E--------3------------------------
    
    
    Luego va esto hasta el final de la INTRO que dice Cristo
    
    G---------------------------------------
    D-------------3-5--3--------------------
    A---1-1----3---------5------------------
    E---------------------------------------
  • CANTO, DANZO, SALTO
    
    ESTA ES LA TAB. DE BAJO DE LA CANCIÓN EN SU TONO ORIGINAL ESPERO TE SIRVA
    
               INTRO
    
    G------------------------------
    D----------------1-3-----------   (X2)
    A---1-1------1-3---------------
    E--------3---------------------
    B------------------------------
    
    G----------------------------5-3--
    D----------------1-3---5-5--------
    A---1-1------1-3------------------
    E--------3------------------------
    B---------------------------------
    
    G--------------------------------
    D-------------3-5--3-------------
    A---1-1----3---------5-----------
    E--------------------------------
    B--------------------------------
    
                INICIO
    
    G------------------------------------
    D------------------------------------
    A---3-3-3--3-1-----6----6----6----6--
    E----------------4----4----4----4----
    B------------------------------------
    
    G---------------------------
    D--------------8------------
    A-------8--10----10--8------
    E--6--6---------------------
    B---------------------------
    
    G------------
  • +
    ¡Colabora con nosotros!
    Envíanos tu versión de esta canción
  • Tutorial
    HD
    Miel San Marcos Canto Danzo Salto Bajo Tutorial With Tabs (HD)
    5:11

Letra de Canto, danzo, salto
Mi pasado borro
Mi tristeza quito
Hoy nueva criatura soy en el
No más condenación
Hecho fuera el temor
Danzare con libertad
Hoy canto danzo salto para Cristo
Somos la generación
Que alegra su corazón
Canto, danzo, salto para Cristo
Los jovenes y ancianos
Juntamente nos alegramos
Intermedio:
Somos la generación
Que danza para el




[Canto, danzo, salto acordes][Canto, danzo, salto chords]
© LaCuerda.net · notícia legal · privacidade · es · en · pt · contato
DINAMICO