Cifras para Violão e Guitarra » M »Miel San Marcos » Levántate Señor (Tab)

Levántate Señor
Miel San Marcos

Letras, cifras e tablaturas para violão, guitarra, piano, ukulele e baixo

  • Am-G-F      C       G        Am
         Levántate, levántate Señor
    Am-G-F             C    E             Am
         que tus enemigos huyan delante de ti
    Am-G-F      C       G        Am
         levántate, levántate Señor
    Am-G-F             C    E             Am
         que tus enemigos huyan delante de ti.
    
    -Coro-
    Am-G-F                   C
    Mas los justos se alegrarán
       G               Am
    cantarán con regocijo
    Am-G-F                C
    el Señor se ha levantado
     E7                 Am
    a triunfado con poder
    
    
    
  • Intro: F C G Am7-C/G-F
                F       C     G        Am7
                 Levántate, levántate Señor
                F            C     G              Am7
                 Que tus enemigos huyan delante de ti
            F                C        G           Am7
    Más los justos se alegrarán, cantarán con regocijo
          F             C             G         Esus
    El Señor se ha levantado, ha triunfado con poder
    
    (Desarrollo percusiones y Guitarra con Distorsión)
    (E) Am - F - C - G | Am - F - C - G - Esus
    
    Trompetas   F     C    G    Am7(x2)
    ESTROFA
    Am-G-F       C     G      Em7-Am
          Levántate, levántate Señor      contratiempo
    Am-G-F              C     G/B          Em-Am
          Y que tus enemigos huyan delante de ti
    Am-G-F        C    G      Em7-Am
    
  • Intro:  F     C     G    Am7
    
                F       C     G        Am7
                 Levántate, levántate Señor
                F         C         G           Am7
                 que tus enemigos huyan delante de ti
    F                   C
      Mas los justos se alegrarán
    G               Am7
    cantarán con regocijo
    F                    C
    el Señor se ha levantado
    G                Esus
    a triunfado con poder
    
    (Desarrollo de los tambores y Guitarra con Distorsion)
    
    Am    F    C    G
    Am    F    C    G   Esus   (Desarllo de tambores)
    
    
  • 1:-----------------------------------------------
    2:-------8-10---10---13---10-10/8----------------
    3:---9--------------------------------7-7/9--------
    
    Guitarra 2 o Segunda vez haciendo algo diferente:
    
    1:-------7--8------12----10-10/8----------------------
    2:---10------------------------------10-10/8----------
    3:----------------------------------------------------
    
    Termina en Mi MAYOR = E
    
    
    
    Ahora viene cuando la guitarra acompaña a las trompetas;
    siempre parte de la intro:
    
    1:--------------------------------------------------------
    2:----8-8---10---10-8----8-8----8-10-8-10-----------------
    3:--9-----9------------------9----------------------------
    
  • E ----------------------------
    B ---8-10--13--8-10-8---------
    G -9------------------7-9-7---
    D ---------------------------- x2
    
    Primera guitarra
    E ----7-8--12-8-10-8--------
    B -10-------------- -8-10-8-
    G --------------------------
    D --------------------------  x2
    
    Trompetas: Intro
    E -------------------------------------
    B ---8-8---10--10-8---8-8---8-10-8-10--
    G -9-----9----------------9------------
    
    E -------------------7-7-----------
    B -----8-8---10-10-8-----10-8--10--
    G ---9----9------------------------   Todo X2
    
    
  • la introduccion de la guitarra eléctrica durante los tambores es:
    
    1:-------------------------------------
    2:----8-10---10---13------5/10--8-----
    3:---9---------------------------------
    
    1:----------5h7h8---8------12---5/10--8
    2:--------------------------------------
    3:--5/9--7------------------------------
    
    1:----------
    2:--5/10--8-
    3:----------
    
    se rasgean las dos cuerdas
    para darle un sonido de
    flamenco que acompañe la bateria:
    
    1:--12---13--12------13--12---13--12------13
    2:--10---10--10------10--10---10--10------10
    
    esto se continua hasta la parte de la trompetas
    
    
    Las trompetas en la guitarra son:
    
    1:------------------------------------------
    2:---5-6-7-6---7/8-8-7---7-7-6-7-8-7-8-----
    3:------------------------------------------
  •            Este es el solo del bajo espero les sea de bendicion.
                   *********CRISTO ES REY^^^^^^^
    
    
      E---5-5-3-5-----------------------------------7-55
      A-----------3-7--7-------------------------7-5----
      D---------------5--5--7---7-7-5-7-------7-5-------
      G-----------------------5---------5-7-5----------=
    
    
      B--5-------------------5-------2-5-5-----
      E---5---55-3-5--5---55---5--55----3--5/3-
      A-----3-------3-----------3--------------
      D----------------------------------------
      G----------------------------------------
    
       cristo...Leon.......................
     E--5-3---5-3
    
    Dios les bendiga saludos y bendiciones algun comentario o preguntas
    slapface777@live.com
    saludos a todo la iglesia LUZ ADMIRABLE EN WINSTON-SALEM NC.
  • +
    ¡Colabora con nosotros!
    Envíanos tu versión de esta canción
  • Tutorial
    HD
    Miel San Marcos Levantate Señor Bajo Tutorial With Tabs (HD)
    5:37
  • Tutorial
    HD
    como tocar levantate señor - marcos witt
    8:00

Letra de Levántate Señor
Levántate, levántate Señor
que tus enemigos huyan delante de ti
Mas los justos se alegrarán
cantarán con regocijo
el Señor se ha levantado
a triunfado con poder
(Desarrollo de los tambores y Guitarra con Distorsion)
Introduccion de trompetas
las notas son las mismas del coro de abajo
Levántate, levántate Señor
que tus enemigos huyan delante de ti
levántate, levántate Señor
que tus enemigos huyan delante de ti.
Mas los justos se alegrarán
cantarán con regocijo
el Señor se ha levantado
a triunfado con poder
AA EGA CGA AEGA CDE G // 2 veces esto
AA EGA CGA AEGA CCBB / 1 vez
y de ahi vuelve 2 veces lo primero y una la segunda
Poderoso/
Vencedor/
El León de Judá/
Hombre de Guerra/
///////Cristo///////
www.facebook.com/AzzulMusic




[Levántate Señor acordes][Levántate Señor chords]
© LaCuerda.net · notícia legal · privacidade · es · en · pt · contato
DINAMICO