Cifras para Violão e Guitarra » M »Miel San Marcos » Hay Libertad (Tab)

Hay Libertad
Miel San Marcos

Letras, cifras e tablaturas para violão, guitarra, piano, ukulele e baixo

  • Em F D Em C
    Em F G F
    Em F D Em C
    Em F D Em C B (x 3 veces)
    Em F G A C D E
    
    Melodía Am F G Am G Am F G E
    
    G        Am          F
    Hay libertad para alabarle
             G            Am
    Hay libertad para adorarle
             Am          F
    Hay libertad para alabarle
             G           E
    Hay libertad para adorarle
    
    G        Am          F
    Hay libertad para labarle
             G            Am
    
  • Gadd2 Am7                  Fmaj7 Cmaj7    Gadd2
            Si el Hijo os Libertare     libre seremos
    Gadd2 Am7                  Fmaj7 Cmaj7    Gadd2
            Si el Hijo os Libertare     libre seremos//
    
    II
    Fmaj7           Gadd2        Em7
    Libres por el poder de su presencia
    Fmaj7           Gadd2        Em7
    Libres por el poder de su palabra
    Fmaj7                 Dm7              E7-Abmaj7b5/E
    Hoy confesamos que en Cristo hay liberta -Ad//
    Coro
        Am7                  Fmaj7
    ////Hay libertad para alabarle
              Gadd2       Am7aLA cuarta vez Em7 Abmaj7b5/E
    Hay libertad para adorarle////
    
    Repetir I,II, coro 4x forte, x4 suave, x4 Forte.
    
    
  • E|----------3-5˜------------------------------            e---3--5˜˜˜
    B|---3-5-3-5-----5-3-----------3-5-3---3-55˜--
    G|------5------------5-2-0-2-5-------5-------- X3 y luego
    D|--------------------------------------------
    A|--------------------------------------------
    E|--------------------------------------------
    
    
    
    
    G     Am                   F     C        G
            Si el Hijo os Libertare     libre seremos
    G     Am                   F     C        G
            Si el Hijo os Libertare     libre seremos
    
    F              G            Am Em
    Libres por el poder de su presencia
    F               G            Am Em
    Libres por el poder de su palabra
    F                     Dm               E
    
  • Si la tocas en el tono original, Am / Lam, el intro se toca asi.
    Tocala con distorcion para darle ese effecto cercano a la trompeta
    y un poco mas moderno
    
    
    INTRO
    
    
    e----------------------3---5------------------------
    B---5---3------3---5-----------5---3----------------
    G----------5---------------------------5---2p0-or-5-
    D---------------------------------------------------
    A---------------------------------------------------
    E---------------------------------------------------
    
    e---------------------------------------------------
    B---5---3------3---5-----3/5------------------------
    G----------5----------------------------------------
    D---------------------------------------------------
    A---------------------------------------------------
    E---------------------------------------------------
    
    
    e----------------------3---5------------------------
    B---5---3------3---5-----------5---3----------------
    G----------5---------------------------5---2p0-or-5-
    D-------------------------------------
  • +
    ¡Colabora con nosotros!
    Envíanos tu versión de esta canción
  • Tutorial
    HD
    Hay Libertad

    Miel San Marcos

    Bass/Bajo Sheet Music, Tabs, & Partitura
    1:54

Letra de Hay Libertad
Si el Hijo os Libertare libre seremos
Si el Hijo os Libertare libre seremos//
II
Libres por el poder de su presencia
Libres por el poder de su palabra
Hoy confesamos que en Cristo hay liberta -Ad//
////Hay libertad para alabarle
Hay libertad para adorarle////
Repetir I,II, coro 4x forte, x4 suave, x4 Forte.
Intermedio
Tiempo doble
¡Y todo el pueblo grito! Libre
¡Y todo el pueblo grito! Libre
¡Y todo el pueblo grito! Yo soy Libre
Final
Composición del acorde Abmaj7b5/E
I III Vb VII
Kredosmusicgospel@yahoo.com
Milton Rodriguez de alabanza Lluvias de Gracia
Chema,Tavo, Nicho,Guajaca,Gorro,Kila,Molina,Grillo,
Pelon,JhojhANAS,Bendiciones!




[Hay Libertad acordes][Hay Libertad chords]
© LaCuerda.net · notícia legal · privacidade · es · en · pt · contato
DINAMICO