Cifras para Violão e Guitarra » M »Miel San Marcos » Increíble (Tab)

Increíble
Miel San Marcos

Letras, cifras e tablaturas para violão, guitarra, piano, ukulele e baixo

  • F - C - G - Am x2
    
    
    ------ESTROFA-------------
    
    F           C
       Poderoso, invencible
    G               Am
       admirable, grande y fuerte
    F               C          G              Am
       Rey de Reyes, asombroso, incomparable...
    
    
    
    -----CORO----------
    
    
              F  C
    Eres increible
    G               Am
    
  • F - C - G - Am x2
    
    
    ------ESTROFA-------------
    
    F           C
       Poderoso, invencible
    G               Am
       admirable, grande y fuerte
    F               C          G              Am
       Rey de Reyes, asombroso, incomparable...
    
    
    
    -----CORO----------
    
    
              F  C
    Eres increible
    G               Am   C/E
    
  •    Tono: C
    VERSION: Bonus track/Estudio.
    ______________________________________
    
    INTRO (2x)
    F | C | G | Am7 |
    
    VERSO 1
    F           C
      Poderoso,   invencible
    G             Am7             F
      Admirable, grande y fuerte Dios.
                  C
    Rey de Reyes,   Asombroso,
    G              Am7
      Incomparable.
    
    CORO 1
              F    C
    Eres increí - ble
    
  • Intro: F - C - G - Am - Em
    
    E|--------------------------------------------------------------
    B|-------------------------------------------13-13-12-12-10-10--
    G|----9-7-7------------9-7-7--------9-7-7-----------------------
    D|-10-------10--/10-10-------10--10-------10--------------------
    A|--------------------------------------------------------------
    E|--------------------------------------------------------------
    
    E|--------------------------------------------------------------
    B|-8-8----------------------------------------------------------
    G|--------9-7-7------------9-7-7--------9-7-7--------9----9-----
    D|-----10-------10--/10-10-------10--10-------10--10---10-------
    A|--------------------------------------------------------------
    E|--------------------------------------------------------------
    
    E|------------
    B|------------
    G|-9-7--------
    D|-----10ñ----
    
  • ----(INTRO)----(1x)
    F C G Am G
    
    RIFF#1
    Intro de la guitarra, este riff acompaña de fondo a la estrofa.
    
    e|-------------|-----------|-------------|-8-8-7-7---------|
    B|-----5-------|-----5-----|-----5-------|---------10-10-8-|
    G|-5-5---7-5-5-|-5-5---5-7-|-5-5---7-5-5-|-----------------|
    D|-------------|-----------|-------------|-----------------|
    A|-------------|-----------|-------------|-----------------|
    E|-------------|-----------|-------------|-----------------|
    
    e|-------------|-----------|-------------|-----------------|
    B|-----5-------|-----5-----|-----5-------|-----------------|
    G|-5-5---7-5-5-|-5-5---5-7-|-5-5---7-5-5-|--7/9-9-7-9------|
    D|-------------|-----------|-------------|-----------------|
    A|-------------|-----------|-------------|-----------------|
    E|-------------|-----------|-------------|-----------------|
    
    
  • +
    ¡Colabora con nosotros!
    Envíanos tu versión de esta canción
  • Tutorial
    HD
    Increíble (Como en el Cielo)
    Miel San Marcos - TUTORIAL BAJO ELECTRICO
    4:37
  • Tutorial
    HD
    Increíble - Miel San Marcos - TUTORIAL Guitarra Eléctrica (NA)
    4:35
  • Tutorial
    HD
    Miel San Marcos Increible Bajo Cover (HD)
    4:31

Letra de Increíble
Poderoso, invencible
admirable, grande y fuerte
Rey de Reyes, asombroso, incomparable...
Eres increible
todopoderoso, grande
eres increible
venciste las tinieblas
Cristo exaltado estas...
Increible, invencible
dios solo tu, solo tu
Tu eres increible, invencible
Mi Dios solo tu, solo tu...
Espero y esta transcripcion pueda ser de bendicion para sus vidas...
Saludos a la Iglesia Remanente Escogido de Tijuana Baja California....




[Increíble acordes][Increíble chords]
© LaCuerda.net · notícia legal · privacidade · es · en · pt · contato
DINAMICO