Cifras para Violão e Guitarra » M »Miguel Gallardo » Hoy tengo ganas de tí (Tab)

Hoy tengo ganas de tí
Miguel Gallardo

Letras, cifras e tablaturas para violão, guitarra, piano, ukulele e baixo

  • F#m
    Fuiste ave de paso
        Bm
    y no sé porque razón
       E
    me fui acostumbrando
              A
    cada día mas a ti
              F#m
    los dos inventamos
          Bm
    la aventura del amor
       E
    llenaste mi vida
     A
    y después te vi partir
     Bm
    sin decirme adiós
     C#
    yo te vi partir
    
  • F#m, sino Bm...
    
          F#m
    Fuiste ave de paso
                   Bm
    y no sé porque razón
       E
    me fui acostumbrando
              A
    cada día mas a ti
              F#m
    los dos inventamos
                    Bm
    la aventura y el amor
              E
    llenaste mi vida
                    A
    y después te vi partir
           Bm
    sin decirme adios
    
  •             F#m
    Fuiste ave de paso
                   Bm
    y no sé porque razón
       E
    me fui acostumbrando
              A
    cada día mas a ti
              F#m
    los dos inventamos
                    Bm
    la aventura y el amor
              E
    llenaste mi vida
                    A
    y después te vi partir
           F#m
    sin decirme adios
           C#7
    yo te vi partir
    
  • Esta cancion esta bien padre
    me facino
    al principio parecia facil
    pero se va complicando en
    la segunda estrofa
    el bajo empieza en...
    Intro 00:13
    E|--------|----|
    A|--------|-4--|
    D|--4-2-0-|----|
    G|--------|----|
    
    Fuiste ave
    E|--2-0---|-----5-|-4-2-------|-----5-|----|----|----------|
    A|------2-|---5---|-------5-2-|---5---|-22-|-44-|-4-5-7-4--|
    D|--------|-2-----|-----4-----|-2-----|----|----|----------|
    G|--------|-------|-----------|-------|----|----|----------|
    
    Quiero en tus
    E|--2-------|---------|-----5-|-5544-|-2---|-----|-----|----------|
    A|--------2-|-2-4-5-2-|---5---|------|-----|-----|---4-|-4-5-7-4--|
    D|----2-0---|---------|-2-----|------|---4-|-4-2-|-0---|----------|
    G|----------|---------|-------|------|-----|-----|-----|----------|
    
    Quiero en tus
    E|----------|---------|-----5-|-5544-|-2---|-----|------|
    A|--------2-|-2-4-5-2-|---5---|------|-----|-----|---4--|
    D|--4-2-0---|---------|-2-----|------|---4-|-4-2-|-0----|
    G|----------|---------|-------|------|-----|-----|-----
  • +
    ¡Colabora con nosotros!
    Envíanos tu versión de esta canción

Letra de Hoy tengo ganas de tí
Fuiste ave de paso
y no sé porque razón
me fui acostumbrando
cada día mas a ti
los dos inventamos
la aventura y el amor
llenaste mi vida
y después te vi partir
sin decirme adios
yo te vi partir
quiero en tus manos abiertas
buscar mi camino
y que te sientas mujer
solamente conmigo
hoy tengo ganas de ti
hoy tengo ganas de ti
quiero apagar en tus labios
la sed de mi alma
y descubrir el amor
juntos cada mañana
hoy tengo ganas de ti
hoy tengo ganas de ti
no hay nada mas triste
que el silencio y el dolor
nada mas amargo
que saber que te perdí
hoy busco en la noche
el sonido de tu voz
y donde te escondes
para llenarme de ti
llenarme de ti
llenarme de ti
Esta si son las notas correctas.




[Hoy tengo ganas de tí acordes][Hoy tengo ganas de tí chords]
© LaCuerda.net · notícia legal · privacidade · es · en · pt · contato
DINAMICO