Cifras para Violão e Guitarra » M »Mosquito Farm » Así eres tu (Dios) (Tab)

Así eres tu (Dios)
Mosquito Farm

Letras, cifras e tablaturas para violão, guitarra, piano, ukulele e baixo

  • intro: B - E - F#m - E
    
             B            E
    Como podré, yo encontrar
             F#m                  E
    alguien como tu que me haga soñar?
             B            E
    No eres igual, que los demas
             F#m                   E
    simplemente con tocarme me haces volar
    
          F#m
    Eres diferente
             E
    siempre me perdonas
          F#m
    Eres muy paciente
            E
    Nunca me abandonas
    
    
  • solo es la parte del intro y el solo
    
    EL INTRO SE TOCA CON PALM MUTE!!
    Intro
    E--------|     |--------|    |--------|    |--------|
    B--------|     |--------|    |--------|    |--------|
    G--------|     |--------|    |--------|    |--------|
    D------1-|     |------1-|    |------4-|    |------4-|
    A----2---|     |----2---|    |----2---|    |----2---|
    E--2-----| (x5)|--0-----|(x5)|--4-----|(x5)|--0-----|(x3)
    
    
    como podre yo encontrar alguien como tu que me haga soñar
    E--------|     |--------|    |--------|    |--------|
    B--------|     |--------|    |--------|    |--------|
    G--------|     |--------|    |--------|    |--------|
    D------1-|     |------1-|    |------4-|    |------4-|
    A----2---|     |----2---|    |----2---|    |----2---|
    E--2-----| (x5)|--0-----|(x5)|--4-----|(x5)|--0-----|(x3)
    
    
    no eres igual que los demas simplemente con tocarme me haces volar
    E--------|     |--------|    |--------|    |--------|
    B--------|     |--------|    |--------|    |--------|
    G--------|     |--------|    
  • +
    ¡Colabora con nosotros!
    Envíanos tu versión de esta canción

Letra de Así eres tu (Dios)
Como podré, yo encontrar
alguien como tu que me haga soñar?
No eres igual, que los demas
simplemente con tocarme me haces volar
Eres diferente
siempre me perdonas
Eres muy paciente
Nunca me abandonas
Eres como el sol cada mañana
Eres tu la paz que me acompaña
La razon de mi canción //
Miren ps, a ley la intro es la mas pelada
xq esta con Palm muting
tons escribanme i se las doy xq en esta onda no muy
le agarro la onda HaHaHa




[Así eres tu (Dios) acordes][Así eres tu (Dios) chords]
© LaCuerda.net · notícia legal · privacidade · es · en · pt · contato
DINAMICO