Cifras para Violão e Guitarra » M »Mr. Kilombo » Sinmigo (Tab)

Sinmigo
Mr. Kilombo

Letras, cifras e tablaturas para violão, guitarra, piano, ukulele e baixo

  • [Intro] G  Bm  G  Bm
    
    G          Bm      G             Bm
    Que morena vienes, De andar por ahí
    
    G              Bm        D           G
    Lo bien que te sienta, Estar lejos de mí
    
    G          Bm      G                  Bm
    Me pediste tiempo, Condena que ya cumplí
    
    G              Bm    D                G
    No ha cambiado nada, Ya decido yo por ti
    
    C
    Y aunque cada dos días, Me acuerde de tus pecas
    
    G
    Agarrar esta cuerda, Me quema las muñecas
    
    
  • Gadd13      Bmadd11    Gadd13      Bmadd11
      Qué morena vienes     de andar por ahí.
    Gadd13      Bmadd11      Am7add11 Bmadd11   Gadd13
      Lo bien que te sienta   estar    lejos   de mí.
    
    
    Gadd13      Bmadd11    Gadd13      Bmadd11
      Me pediste tiempo,   condena que ya cumplí.
    Gadd13      Bmadd11    Am7add11  Bmadd11   Gadd13
    No ha cambiado nada:    ya decido    yo   por   ti.
    
    
    Cadd9
    Y aunque cada dos días me acuerde de tus pecas:
    Gadd13
    agarraré esta cuerda; me quema las muñecas.
    
    
     D(sus2)
    No pienso ser tu espía, ni tu mejor amigo.
    
  • ---------------------------------------------------------
    ---------0-------------0-------------5------------5------
    ----2------2------2------2-------7-----7------7-----7----
    ------0------0------0------0-------0-----0------0-----0--    x2
    ---------------------------------------------------------
    --3-------------3-------------s7------------s7-----------
    
    
    
    Estrofas:
    -----------------------------------------------------------
    ---------0---------------0-------------5------------5------
    ----2------(2)------2------2-------7-----7------7-----7----
    ------0------(0)------0------0-------0-----0------0-----0--    x3
    -----------------------------------------------------------
    -----------------------------------------------------------
    --3---------------3-------------s7------------s7-----------
    
    Qué morena                   vienes
    de andar     por             ahí
    
  • +
    ¡Colabora con nosotros!
    Envíanos tu versión de esta canción

Letra de Sinmigo
Que morena vienes, De andar por ahí
Lo bien que te sienta, Estar lejos de mí
Me pediste tiempo, Condena que ya cumplí
No ha cambiado nada, Ya decido yo por ti
Y aunque cada dos días, Me acuerde de tus pecas
Agarrar esta cuerda, Me quema las muñecas
No pienso ser tu espía, Ni tu mejor amigo
Quiero que ames libre, Aunque sea sinmigo
Hay que soltar con fuerza, Dejar que llueva mares
Llenarnos la cabeza, De pájaros de portugales
Pero no tengo el cuerpo pa mendigar amores
Pero no tengo el cuerpo pa mendigar amores
Luz de carretera, Asfalto y añil
Empezar de cero, Alejándome de ti
Y aunque cada dos días, Me acuerde de tus pecas
Agarrar esta cuerda, Me quema las muñecas
No pienso ser tu espía, Ni tu mejor amigo
Quiero que ames libre, Aunque sea sinmigo
Hay que soltar con fuerza, Dejar que llueva mares
Llenarnos la cabeza, De pájaros de portugales
Pero no tengo el cuerpo, pa mendigar amores
Pero no tengo el cuerpo, pa mendigar amores




[Sinmigo acordes][Sinmigo chords]
© LaCuerda.net · notícia legal · privacidade · es · en · pt · contato
DINAMICO