Cifras para Violão e Guitarra » M »Música Religiosa » Alma misionera (Tab)

Alma misionera
Música Religiosa

Letras, cifras e tablaturas para violão, guitarra, piano, ukulele e baixo

  • SOL    RE             MIm    DO
    señor, toma mi vida nueva antes de
        SOL   RE              SOL      RE
    la espera, desgaste años en mi.
    SOL    RE             MIm    DO
    estoy dispuesto a lo que quieras no
                  SOL  RE        SOL      RE
    importa lo que sea tu llamame a servir
    
    ESTR:
    SOL
    LLEVAME DONDE LOS
       RE         MIm
    HOMBRES NECESITEN TUS
         DO            SOL       RE
    PALABRAS, NECESITEN MIS
                  SOL  RE
    GANAS DE VIVIR
    
                SOL
    
  •  SOL                MIm
    Señor, toma mi vida nueva antes de
        SOL                     RE
    la espera, desgaste años en mi.
      SOL                     MIm
    estoy dispuesto a lo que quieras no
                  SOL      RE          SOL
    importa lo que sea tu llámame a servir
    
    
    CORO:
    
    SOL
    LLEVAME DONDE LOS
    RE          MIm
    HOMBRES NECESITEN TUS
                  SOL
    PALABRAS, NECESITEN MIS
                RE
    GANAS DE VIVIR
    
  •    FA  DO             REm
    Señor, toma mi vida nueva
    LA#                FA
    Antes de que la espera
    LA#                DO
    Desgaste años en mi
    
       FA  DO             REm
    Estoy dispuesto a lo que quieras
    LA#                FA
    No importa lo que sea
    LA#    DO       FA     DO7
    Tu llámame a servir...
    
    CORO:
    FA                  DO
    Llévame donde los hombres
      REm           LA#
    Necesiten tus palabras
        FA     LA#            DO
    
  • E-----0-2-2-3-2-0-0---2-0---------------------/
    B---3---------------------3-0-3-0-3-0---------/
    G---------------------------------------------/
    D---0-----------------------------------------/
    A---------------------------------------------/
    E---------------------------------------------/
    
    E---0-2------0-2-0---0---------0h2h3-----------/
    B-3-----3--3-------3--------0h2h3--------------/
    G--------------------------2-------------------/
    D----------------------------------------------/
    A----------------------------------------------/
    E----------------------------------------------/
    
    E-----0-2-2-3-2-0-0---2-0---------------------/
    B---3---------------------3-0-3-0-3-0---------/
    G---------------------------------------------/
    D---0-----------------------------------------/
    A---------------------------------------------/
    E---------------------------------------------/
    
  • +
    ¡Colabora con nosotros!
    Envíanos tu versión de esta canción
  • Tutorial
    HD
    Alma Misionera - Acordes y letra
    3:40

Letra de Alma misionera
señor, toma mi vida nueva antes de
la espera, desgaste años en mi.
estoy dispuesto a lo que quieras no
importa lo que sea tu llamame a servir
ESTR:
LLEVAME DONDE LOS
HOMBRES NECESITEN TUS
PALABRAS, NECESITEN MIS
GANAS DE VIVIR
DONDE FALTE
LA ESPERANZA DONDE TODO
SEA TRISTE SIMPLEMENTE
POR NO SABER DE TI
Verso 2: (las mismas notas y ritmo que el verso 1)
te doy mi corazon sincero para gritar
sin miedo tu grandeza señor.
Tendré, tus manos sin cansancio tu historia entre
mis labios y fuerza en la oración.
ESTR




[Alma misionera acordes][Alma misionera chords]
© LaCuerda.net · notícia legal · privacidade · es · en · pt · contato
DINAMICO