Cifras para Violão e Guitarra » N »Niña Pastori » Válgame Dios (Tab)

Válgame Dios
Niña Pastori

Letras, cifras e tablaturas para violão, guitarra, piano, ukulele e baixo

  • Do*: 355533
    
    
               LA#
    Y es la verdad,
            DO*
    querer asi es un "pecao",
          SOLm
    válgame Dios.
              DO*
    Que me perdone el santo padre
       LA#
    pero yo...
            FA7                  SOLm
    no se vivir si no te tengo ahí, a mi vera.
    
              DO
    Y es la verdad,
           DO7          LAm7
    que quererte más no puedo,
    
  • SOLm9/MI      [000333]
    REm           [000231]
    LAm           [002210]
    LA#7          [113131]
    SOLsus4       [355533]
    FA7           [131211]
    LA#6          [353333]
    DO            [010230]
    DO7           [013230]
    LAm7          [002010]
    SOLm          [355333]
    RE7add11      [534533]
    LA#6/SOL3     [453333]
    LAadd9        [578655]
    LA#7*         [686766]
    LAm*          [577555]
    LA*           [577655]
    REm*          [557765]
    REm7M         [557665]
    LA7*          [575655]
    
  • Intro: Dm9, Dm9/F, Em7, Bbmaj7  , F/C , Gm7
    
    
               Bbmaj7
    Y es la verdad,
            F/C
    querer asi es un "pecao",
          Gm7
    válgame Dios.
              F/C
    Que me perdone el santo padre
       Bbmaj7
    pero yo...
            F/C                  Gm7
    no se vivir si no te tengo a mi vera.
    
              C9
    Y es la verdad,
           Cdim            Am7
    que quererte más no puedo,
    
  • Intro: REm LAm REm MI REm SOLm REm SOLm SIb FA SOLm
    
                SIb
    Y es la verdad,
              FA
    querer así es un pecao,
             SOLm
    válgame Dios,
                FA                     SIb
    que me perdone el santo Padre pero yo
              FA                   SOLm
    no sé vivir si no te tengo y a mi vera.
    
                DO
    Y es la verdad
           SIb             LAm
    que quererte más no puedo,
             SIb          SOLm
    y el pensarlo me da miedo,
      DO               FA
    
  • E||-----------------|----0h1-1-0-----0h1--0--------------------0--0h1-1-0--||
    B||-----------------|------------3-3---------3-1-1---1----1-3--------------||
    G||-2-2-2-2h3p2p0h2-|--2--------------------------------3------------------||
    D||-----------------|------------------------------------------------------||
    A||-----------------|------------------------------------------------------||
    E||-----------------|------------------------------------------------------||
    
    
                     (dedo 4)                     (dedo 3)
    E||---------5-8-8⌒10-8----8⌒13--13-13-12-12-12-10--------------------------
    B||----5h6---------------------------------------------8h10-8-------8h10----
    G||-7-----------------------------------------------------------10----------
    D||-------------------------------------------------------------------------
    A||-------------------------------------------------------------------------
    E||-------------------------------------------------------------------------
    
    
    E||--------------------------------0h1h3p1p0------------||-----------------||
    B||---------------------------1h3-------------3p1-- ˷˷--||-----------------||
    G||----------------------2h3----------------------3p2---||---(INTRO)-------||
    
  • +
    ¡Colabora con nosotros!
    Envíanos tu versión de esta canción

Letra de Válgame Dios
Y es la verdad,
querer así es un pecao,
válgame Dios,
que me perdone el santo Padre pero yo
no sé vivir si no te tengo y a mi vera.
Y es la verdad
que quererte más no puedo,
y el pensarlo me da miedo,
tu no te vayas a equivocar,
y es que es tanto lo que te quiero
que no lo podria aguantar.
Quiero que me beses
y a media voz decirte que te amo
y hablame bajito
que nadie se entere
lo que nos contamos
quiero que me beses
que nadie se entere
lo que nos amamos.
Por ti seré un angelito
y guardaré tu corazón
y borraré más los recuerdos
y te daré la luz de luna
que tu corazón buscaba.
Y quiero ser
ese brillo de tu mirada,
un reflejo de tu alma,
pequeñas cosas yo te daré,
la fé que mueve montañas
LA#6/SOL#
y el sentimiento mas puro
quiero ser.
ESTRIBILLOX2
Que me perdone el santo padre pero yo...
Un angelito y guardaré tu corazón...
Que me perdone el santo padre pero yo...
diegit019@hotmail.es




[Válgame Dios acordes][Válgame Dios chords]
© LaCuerda.net · notícia legal · privacidade · es · en · pt · contato
DINAMICO