Cifras para Violão e Guitarra » N »Noelia » Tú (Tab)


Noelia

Letras, cifras e tablaturas para violão, guitarra, piano, ukulele e baixo

  • Am
    En mi mente estas como una adiccion
                    Dm          
    que se siente dulce , tierna y natural
              G               
    pasas el umbral de mi intimidad 
                      C                  E7
    llegas hasta el fondo de cada rincon
                 Am                                Dm
    me tienes aqui como quieres tu , es decir desplazas
              E7                   Am    
    a mi soledad , me vas atrapando.
    
    
    Am
    En mi mente estas palpitando a mil
                  Dm
    y verte a mi lado es mi necesidad
                G
    el dejarte ir o decir adios
    
  • e|-7-4-5-7--11-11-9--9--7-9--7-5-2-4-5-9--9--7-7-5-7-5-4-
    B|-9-5-7-9--12-12-10-10-9-10-9-7-4-5-7-10-10-9-9-7-9-7-5-
    G|-------------------------------------------------------
    D|-------------------------------------------------------
    A|-------------------------------------------------------
    E|-------------------------------------------------------
    
    e|-0-2-4-7-7-9--5-4-5---7-9--5-4-2-4-
    B|-2-4-5-9-9-10-7-5-7---9-10-7-5-4-5-
    G|--------------------4--------------
    D|-----------------------------------
    A|-----------------------------------
    E|-----------------------------------
    
    G#7          C#m
    En mi mente estas como una adiccion
                  F#m
    Que se siente dulce, tierna y natural
                B7
    Pasas el umbral de mi intimidad
    
  • e--7---4-5-7---10-10---9---9-----7/9---9-----7--5--2-3-7---
    B--9---5-7-9---12-12---11--11----9/11--11----9--7--3-5-9---
    
    e--7-7--6-6--7/6-6---5--3---0-1-3--7-7-6-6--5/6--6-6--5--5--
    B--9-9--8-8--9/8-8---7--5---1-2-5--9-9-8-8--7/8--8-8--7--7-- 
    
    e--4/5--5-5--4-4/3/4------
    B--6/7--7-7--6-6/5/6------
    
    
    
    Estos Acordes Uso En el Frases
    
    
    G#m   F#  B  Am  A  C#m  G#m
    
               CORO
    
    E    A     B   A    A    F#     B    E   B   E   A   F#m   B   E
    
    
  • +
    ¡Colabora con nosotros!
    Envíanos tu versión de esta canción

Letra de Tú
En mi mente estas como una adiccion
que se siente dulce , tierna y natural
pasas el umbral de mi intimidad
llegas hasta el fondo de cada rincon
me tienes aqui como quieres tu , es decir desplazas
a mi soledad , me vas atrapando.
En mi mente estas palpitando a mil
y verte a mi lado es mi necesidad
el dejarte ir o decir adios
es morir en vida, es negarme a mi
que mi libertad se termina en ti
y sentirte cerca es de nuevo saber
que te estoy amando.
Tu y de nuevo tu , dejas que naufrague justamente en ti
tu mi locura tu , me atas a tu cuerpo no me dejas ir
tu , adherido a ti entre cada atomo , entre cada celula vives
tu , todo lo llenas tu , te vienes y pasas como un huracan
tu , total y pleno tu , te has vuelto mi fuerza y mi talisman
tu , silente y sutil , entre cada atomo entre cada celula vives tu.
Vas creciendo en mi , es inevitable
caigo en tu mirada , soy tan vulnerable
desprendes la luz de cada palabra
te has vuelto en mi espada tras cada batalla
descubri el amor al llegar a ti
y caigo de nuevo en esta conclusion
que te estoy amando.
Tu....(se repite)

Entre cada celula , si es que has hecho de mi
lo que tu quieres , lo que sientes lo que has deseado
a tu sexo , a tus ganas , a tu entorno
a tus afectos tu me has moldeado
y en todo vives tu y de nuevo(etc., etc.)
Cualquier aclaracion, duda o comentario
favor de escribir a: irazov@correoweb.com




[Tú acordes][Tú chords]
© LaCuerda.net · notícia legal · privacidade · es · en · pt · contato
DINAMICO