Cifras para Violão e Guitarra » P »Paco de Lucía » Entre dos aguas (Tab)

Entre dos aguas
Paco de Lucía

Letras, cifras e tablaturas para violão, guitarra, piano, ukulele e baixo

  • B:-------------------------------------------------------------|
    G:-------------------------------------------------------------|
    D:-------------------------------------------------------------|
    A:--0-----0-----0-1-2-----2-----2-1-0-----0-----0-1-2-----2----|
    E:-----0-----0---------2-----2---------0-----0---------2-----2-|
    
    PUNTEO A: (2 VECES)
    e:-3-3-2-0----------0-2-3-5-3-2-0-2-0----0-2-3-2-0-------------2h0---2h0-|
    B:--------3-3-1--1-3-----------------3--3---------3-3-1--0-1-3----4-----4|
    G:-----------------------------------------------------------------------|
    D:-----------------------------------------------------------------------|
    A:-----------------------------------------------------------------------|
    E:-----------------------------------------------------------------------|
    
    PUNTEO B:
    e:--3-3-2-5-3-7-5-8-7-10-8-7-------------------------------2h0---2h0--|
    B:--------------------------10-8-7h8--------7--8-7------------4-----4-|
    G:----------------------------------9-7--7-9-------9-7-7--------------|
    D:------------------------------------------------------10------------|
    A:--------------------------------------------------------------------|
    
  •                                                              
    E||-------------------|------------------|------------------|
    B||-------------------|------------------|------------------|
    G||*------------------|------------------|------------------|
    D||*------------------|------------------|------------------|
    A||-------------------|------------------|------------------|
    E||-------------------|------------------|------------------|
    
    
                                                                                    
    -------------------||--0----------------|------------------|--2----------------|
    -------------------||--1----------------|------------------|--3----------------|
    ------------------*||--0----------------|------------------|--2----------------|
    ------------------*||-------------------|------------------|-------------------|
    -------------------||--0----------------|------------------|--2----------------|
    -------------------||-------------------|------------------|---
  • B:-------------------------------------------------------------|
    G:-------------------------------------------------------------|
    D:-------------------------------------------------------------|
    A:--1-----1-----1-2-3-----3-----3-2-1-----1-----1-2-3-----3----|
    E:-----1-----1---------3-----3---------1-----1---------3-----3-|
    
    Punteo A: (2 veces)
    e:-3-3-2-0----------0-2-3-5-3-2-0-2-0----0-2-3-2-0-------------2h0---2h0-|
    B:--------3-3-1--1-3-----------------3--3---------3-3-1--0-1-3----4-----4|
    G:-----------------------------------------------------------------------|
    D:-----------------------------------------------------------------------|
    A:-----------------------------------------------------------------------|
    E:-----------------------------------------------------------------------|
    
    Punteo B:
    e:--3-3-2-5-3-7-5-8-7-10-8-7-5-3-2-3-2-0--
    B:---------------------------------------3
    G:----------------------------------------
    D:----------------------------------------
    A:----------------------------------------
    
  • Intro Y Primera Parte:
    
    E||---------------------|----------------------|--------------------|
    B||---------------------|----------------------|--------------------|
    G||*--------------------|----------------------|--------------------|
    D||*--------------------|----------------------|--------------------|
    A||---0-----------------|--0-----------0----1--|--2-----------------|
    E||------------0--------|---------0------------|-----------2--------|
    
    
    
    -----------------------||
    -----------------------||
    ----------------------*||
    ----------------------*||
    --2-----------2--------||
    ---------2---------0---||
    
    Segunda parte:
    
    E||---------------------|----------------------|--------------------|
    B||---------------------|----------------------|--------------------|
    G||---------------------|----------------------|--------------------|
    D||---------------------|----------------------|--------------------|
    A||---7-----------------|--7-----------7----6--|--5-----------------|
    E||------------7--------|-----
  • Esta melodía tiene 3 fases, esta es la primera que se repite
    continuamente, hasta el primer corte
    
    G--------------------------
    D--------------------------
    A--1----1---1--2--3----3---
    E-----1---1----------3-----
    
    Este es la segunda fase de la melodia que se repide continuamente
    
    G--------------------------------------------------------
    D--3---3---3---------------------------------------------
    A----2---2----5---5---5--3---3---3---3--2---2---2---2----
    E---------------6---6------4---4---4------3---3---3------
    
    Y esta es la ultima fase que la dicta la melodia igual se repite
    hasta el final
    
    G-----------------------
    D--3---3---3------------
    A----2---2----5---5---5-
    E---------------6---6---
    
    Espero la disfruten
    
    Julio González
    Porlamar, Venezuela
    sjrgp@yahoo.es
  • +
    ¡Colabora con nosotros!
    Envíanos tu versión de esta canción
  • Tutorial
    HD
    Tablatura Entre dos Aguas - Paco de lucía
    7:14

Letra de Entre dos aguas
PUNTEO A: (2 VECES)
PUNTEO B:
ACOMPAÑAMIENTO:
suena muy bien si una guitarra toca el punteo
mientras la otra hace esto:
Para cualquier comentario: danipescasub@hotmail.com
La dedico a la mujer de mi vida: DAVINIA. STLC.




[Entre dos aguas acordes][Entre dos aguas chords]
© LaCuerda.net · notícia legal · privacidade · es · en · pt · contato
DINAMICO