Cifras para Violão e Guitarra » P »los Panchos » Los Dos (Tab)

Los Dos
los Panchos

Letras, cifras e tablaturas para violão, guitarra, piano, ukulele e baixo

  • A       Bm C#m         Cm          Bm   E7 Bm      E7
    Te seguiré,   hasta el fin de este mundo,  te seguiré,
    
                     A
    con este amor profundo;
    
                     Bm        C#m       Cdim      Bm E7
    sólo a tí entregaré el corazón, mi cariño y mi fé,
    
          Bm      F#7         Bm   E7         A C#m Cm Bm E7
    y por nada ni nadie en el mundo  te olvidaré.
    
    
    A       Bm C#m     Cm        Bm   E7 Bm             D
    Yo te daré,  de mi vida el anhelo,   y tu serás ese faro
    
       C#7
    de luz,
    
    D           Cdim              A         G7     F#7
    
  • se que ya hay una tablatura de esta rola pero no es igual
    a la mia lo que pasa es que yo tengo otra version de
    esta rola y de esa la saque pero la saque exacta
    la version que tengo espero le sirva a alguien
    
    
    [xx]= tremolo.
    
    --10--12--13--10----------------10--12--[10]-------------------------
    ------------------11--------13----------[13]--10---------------------
    ----------------------12--------------------------11-----------------
    ---------------------------------------------------------------------
    ---------------------------------------------------------------------
    ---------------------------------------------------------------------
    
    
    
    --------------10-----------------------------------------------------
    --10--11--13------11--[11]-------------------10--8-------------------
    ----------------------[12]--10--9--9--8--9----------10--9--10--------
    ---------------------------------------------------------------------
    ---------------------------------------------------
  •  
      Este es el intro de de la rola en LA mayor.
    
     6\------------------------------------------
     5\------------------------------------------
     4\---------------------------------------4--
     3\-------------4-------------3-----------4--
     2\-----------3-------------2----1-2-0---3---
     1\--2-4-5--2------0-2-4--0------------2-----
    
    
     6\------------------------------------------
     5\------------------------------------------
     4\------------------------------------------
     3\-2-1-----2-1-2-------------------------4--
     2\-----2-0-------2---------------------3----
     1\-----------------0-4-1--2-4-5--2-5-2------
    
    
     6\------------------------------------------
     5\------------------------------------------
     4\-------------------------------------4----
     3\----------------3--------------------4----
     2\--------------2----2-1-2-3-4-------3------
     1\-0-2-4--0-4-0----------------0-1-2--------
    
    
     6\------------------------------------------
     5\----------------------------------------
  • E----------------------------------------------------------
    A----------------------------------------------------------
    D-------------------------------------7--------------------
    G-----------7-----------6-----------7-------------------5--
    B---------6---8-----8-5---5-6-8---6-1-0---3-1-0-1---8---5--
    e-5-7-8-5-------5-7-------------5-------0---------0---7-5-5
    
    
    -----------------------------------------------------------
    -----------------------------------------------------------
    --------------------------------------------------7--------
    -------------7----------------6---8---------------7--------
    -----------6----8-----8---8-5---5---5-6-7-8-----6---1-0---3
    -7-8-5-8-5--------5-7---7-------------------4-5---------0—
    
    
    -------------
    -----3-------
    -------2-----
    ---------0---
    -1-0-------1-
    -------------
  •  Este es uno de los requintos mas sencillos de los 
     panchos, el tab es claro no tiene errores.
    
    __      
      \                                       
       1|---7-9-10--7---------7-9---------------
     ) 2|-------------8----10-----10--7---------
       3|---------------9---------------8-------
       4|---------------------------------------
     ) 5|---------------------------------------
       6|---------------------------------------
    __/
    
    
    
          
      \                                       
       1|----------------7-----7---------------2----
     ) 2|----7----7-8-10-----8--8-----2-3-2--2--5-3-
       3|------10---------------------------5-------
       4|-------------------------------------------
     ) 5|-------------------------------------------
       6|-------------------------------------------
    __/
    
    
    
    
     Este  es  mi  primera  tablatura  y se la dedico a mi 
     amorsototote Marisol que 'creo' le gusta esta cancion.
     Alguna duda o sujerencia o requintos de los tres Reyes
     no duden en mandarme u
  • +
    ¡Colabora con nosotros!
    Envíanos tu versión de esta canción

Letra de Los Dos
Te seguiré, hasta el fin de este mundo, te seguiré,
con este amor profundo;
sólo a tí entregaré el corazón, mi cariño y mi fé,
y por nada ni nadie en el mundo te olvidaré.
Yo te daré, de mi vida el anhelo, y tu serás ese faro
de luz,
luna de miel, para los dos, siempre será mi amor,
y en un sueño viviremos los dos, los dos.




[Los Dos acordes][Los Dos chords]
© LaCuerda.net · notícia legal · privacidade · es · en · pt · contato
DINAMICO