Cifras para Violão e Guitarra » P »Las Pastillas del Abuelo » Contra viento y marea (Tab)

Contra viento y marea
Las Pastillas del Abuelo

Letras, cifras e tablaturas para violão, guitarra, piano, ukulele e baixo

  •     C    C(*)  F(*) Gsus4   G     D    D9    Am    Bm
    e|--0-----0-----0-----3-----3-----2-----0-----0-----2--|1°
    B|--1-----3-----1-----1-----0-----3-----3-----1-----3--|2°
    G|--0-----0-----2-----0-----0-----2-----2-----2-----4--|3°
    A|--2-----2-----3-----0-----0-----0-----0-----2-----4--|4°
    D|--3-----3-----x-----2-----2-----x-----x-----0-----2--|5°
    E|--x-----x-----x-----3-----3-----x-----x-----x-----x--|6°
    
    
    
    
    Intro (El C [Do] son dos rasguidos al final de cada vuelta):
    
    
          ( G  - Gsus4 - G - C )x 4
    
    
    
    G            Gsus4  G            C
        Alla voy,         contra vieeento y marea,
    
  •     C   F(*)  Gsus4   G     D    Am    Bm
    e|--0-----0-----3-----3-----2-----0-----2--|-
    B|--1-----1-----1-----0-----3-----1-----3--|-
    G|--0-----2-----0-----0-----2-----2-----4--|-
    A|--2-----3-----0-----0-----0-----2-----4--|-
    D|--3-----x-----2-----2-----x-----0-----2--|-
    E|--x-----x-----3-----3-----x-----x-----2--|-
    
    
    
    
    Intro:
    G       G - Gsus4 - G   x 4
    
    (1)
    G Gsus4 G                        C
    Alla voy, contra viento y marea,
    G Gsus4 G                    C
    Otra vez, una misma pelea.
    Bm                          D
    
  • +
    ¡Colabora con nosotros!
    Envíanos tu versión de esta canción

Letra de Contra viento y marea
(1)
Alla voy, contra viento y marea,
Otra vez, una misma pelea.
Ni siquiera se si vale la pena,
Pero tengo ganas de probar,
Si la suerte me va a compañar de una puta vez,
O si es un mito mas.
Aca estoy, me agarras despeinado,
Estos son, mis tesoros guardados,
Una flor, un buen vino picado,
Un saquito de té que esta usado,
Un impuesto de amor,
Del que siempre estuve exento hasta hoy.
Y aunque se que puedo estar sin vos,
¿Cómo hacer que quiera estar sin vos?
Me perdi, creo que andaba pensando,
Me encontre, por algun lado dudando,
Si me voy al vestuario o si le tiro un caño,
A esta soledad que pone la gamba fuerte
Y me puede quebrar.
No me vi, me tome por sorpresa,
Arranque, y baje la cabeza,
Manejaba un triciclo prestado,
Me la puse contra una pared,
Ahora tengo un pedal en la mano,
El manubrio doblado, me lastime.
Y aunque se que puedo estar sin vos,
¿Cómo hacer que quiera estar sin vos?
Corazon, es tan facil quererte,
Con o sin razon, no me animo a perderte,
Si tu boca respira cerveza,
si tu metro cincuenta y monedas,
desnudos sobre el colchon,
es poesia en carne viva, es esta cancion.
Y aunque se que puedo estar sin vos,
¿Cómo hacer que quiera estar sin vos?
Y aunque se que puedo estar sin vos,
¿Cómo hacer que quiera estar sin vos?




[Contra viento y marea acordes][Contra viento y marea chords]
© LaCuerda.net · notícia legal · privacidade · es · en · pt · contato
DINAMICO