Cifras para Violão e Guitarra » P »Las Pastillas del Abuelo » Qué es Dios? (Tab)

Qué es Dios?
Las Pastillas del Abuelo

Letras, cifras e tablaturas para violão, guitarra, piano, ukulele e baixo

  • Intro: A - Am/G# - F#m - D
    
    La base es IDEM a la Intro
    
    A
    Bajo una mano del cielo,
             Am/G#
    y acariciando su pelo
                       F#m
    rulo y señal de la cruz,
                     D
    la caricia de Jesús,
    hizo posible el milagro.
    
    A
    Convirtió la red en tierra,
           Am/G#
    del balón hizo palomas,
                       F#m
    que aterrizaban su paz,
    
  • Intro: A - E - F#m - D
    
    A
     Bajo una mano del cielo,
             E
    y acariciando su pelo
                       F#m
    rulo y señal de la cruz,
                     D
    la caricia de Jesús,
    hizo posible el milagro.
    
    A
     Convirtió la red en tierra,
           E
    del balón hizo palomas,
                       F#m
    que aterrizaban su paz,
                    D
    en la isla Soledad.
    
  • Intro:
    
    e--------------------------------------------
    B--------------------------------------------
    G---------------9----------------------------
    D-7---9-7-------9---9-7-------7---9-7--------12
    A-7------9-7----7------9-7-8>9-9-----9-7-----12
    E—5---------9-------------9-------------9>10-10
    
    Intro:(rasgueo en 5ª)
    
    Riff (1)
    e--------------------
    B--------------------
    G-----9--11----------
    D--7--9--11--12------
    A--7--7--9---12------
    E--5---------10------
    
    Riff (2)
    e--------------------
    B--------------------
    G---------7--9-------
    D--9--11--7--9-------
    A--9--11--5--7-------
    E--7--9--------------
    
    Riff(3)
    e---------------------
    B---------------------
    G--7->9->11-----7--9-
    D--7->9->11—x2--7--9-
    A--5->7->9------5--7-
    E---------------------
    
    Riff (1)
    Bajo una mano del cielo,
    y acariciando su pelo,
    rulo y señal de la cruz,
    la caricia de Jesús,
    hizo posible el milagro.
    
    Riff(1)
    Convirtió la red en tierra,
    del balón hizo palomas,
    que aterrizaban su paz,
    en la isla Sol
  • Base: (A - G#m - F#m - D) x2
    
    e|------------------------------------|
    B|------------------------------------|
    G|-----9s11s9--11-9-------------------|
    D|-7-9--------------9h11p9--7-9-------|
    A|------------------------------9-7---|
    E|------------------------------------|
    
    e|----------------------------------------5--7--5---|
    B|-------------------------------------7--5--7--5---|
    G|----------------9-------------6-9----6------------|
    D|--7-7-7-9-9b-9b---9brp7---7-9-----7---------------|
    A|------------------------9-------------------------|
    E|--------------------------------------------------|
    
    e|----------12-----------------12----------------------------------|
    B|--12brp10----10-12b--12brp10----10-12b--12brp10-9-10-------------|
    G|-----------------------------------------------------9-11--------|
    D|----------------------------------------------------------9s11---|
    A|-----------------------------------------------------------------|
    E|---------------------------------------------------------
  • Aca les dejo que es dios..Arm en "A"
    
    (x)= notas aspiradas
     x = notas sopladas
    
    7(7)7-(8)8(8)-7(7)(6)au(6)au(6)au-(6)ua 6(6)6 5(5)-6(6)6 5 4
    
    5...7(7)(6)ua(6)ua(6)au-8(8)8(8)8 9(9)8(8)7-(8)9(9)8(8)7
    
    7 8ua ua ua-6...8ua ua...10-...8ua ua ua 9 (9)8(8)7
    
    7(6)ua 6 (5)5(4)5 4
    
    
    Espero que esta vez no me la cambien x alguna babosada!
  • +
    ¡Colabora con nosotros!
    Envíanos tu versión de esta canción

Letra de Qué es Dios?
La base es IDEM a la Intro
Bajo una mano del cielo,
y acariciando su pelo
rulo y señal de la cruz,
la caricia de Jesús,
hizo posible el milagro.
Convirtió la red en tierra,
del balón hizo palomas,
que aterrizaban su paz,
en la isla Soledad.
borrando una absurda guerra.
Judas no juega esta tarde,
lo expulsaron por traidor.
Y once apóstoles de Cristo,
con sus oídos al cielo,
consultándole al Señor.
Y Jesús dijo,
"Me voy, de tácticas ya no hablo,
pero un consejo les doy,
la pelota siempre al diez,
que ocurrirá otro milagro".
El 10 susurró a su oído:
"Novia eterna ven conmigo,
te llevaré de paseo,
que nos verá todo el mundo
y sabrán cuanto te quiero".
blanca piel inmaculada,
se entregaba sin pudor,
a suelas de terciopelo,
de su eterno gran amor.
En filigranas de baile,
comenzaba su paseo,
sobredosis de talento,
convertía a los rivales,
en estatuas de cemento.
Gran amante por doquier,
danza el diez con su mujer,
caricias, besos, abrazos,
el 10 haciendo el amor
y el orgasmo fue un golazooo...
Rojo el sol gritaba gol,
sus rayos brazos en alto,
y Jesucristo a los saltos,
festejaba la proeza
del señor 10 y su alteza.
Otro vuelo de palomas,
raudo viaje hacia el sudeste,
soberanía Argentina,
banderas blanquicelestes,
adornan la Gran Malvina.
Premio Nóbel de la paz,
desde México a Fiorito.
De Malvinas a Inglaterra,
este loco bien bajito,
lleno de risas la tierra.
La sonrisas de madre,
viendo al el diez al compás,
genera risa en latente
su risa en todas las fotos,
de los hijos combatienteeees.
Y Jesús dijo,
"Me voy, de tácticas ya no hablo,
pero un consejo les doy,
la pelota siempre al diez,
que ocurrirá otro milagro" no, no, no, no...
Gran amante por doquier,
danza el diez con su mujer,
caricias, besos, abrazos,
el 10 haciendo el amor
y el orgasmo fue un golazooo...no, no, no, no...
Por tu milagrosa mano
y el milagro de tus pies.
Por tu milagrosa mano
y el milagro de tus pies.
Muchas gracias señor Dios,
Muchas gracias señor 10.
(el final no está igual pero no queda tan mal)




[Qué es Dios? acordes][Qué es Dios? chords]
© LaCuerda.net · notícia legal · privacidade · es · en · pt · contato
DINAMICO