Cifras para Violão e Guitarra » P »Las Pastillas del Abuelo » Hasta acá nos ayuda Dios (Tab)

Hasta acá nos ayuda Dios
Las Pastillas del Abuelo

Letras, cifras e tablaturas para violão, guitarra, piano, ukulele e baixo

  •     Dm              C            F          G
    e|----------------------------------1----------3-----|
    B|----------3-----------1-------1h3--------0h3-------|
    G|------0h2---------0h2-------2----------0-----------|
    D|-0-0-----------------------------------------------|
    A|--------------3-3---------3----------2-------------|
    E|---------------------------------------------------|
    
                                      F    G
    la 2º y 4º vez hace así   e|--------------------------|
                              B|--------1--3--------------|
                              G|--------2--0--------------|
                              D|--------------------------|
                              A|-----3--------------------|
                              E|--------------------------|
    
      Dm  C   F     G    Dm     C     F      G
    1)En carnavales de señales no verbales fue
    Dm    C      F       G    Dm    C    F   G
     descubriendo el lenguaje
    
  •     D              C            F          G
    e|----------------------------------1----------3-----|
    B|----------3-----------1-------1h3--------0h3-------|
    G|------0h2---------0h2-------2----------0-----------|
    D|-0-0-----------------------------------------------|
    A|--------------3-3---------3----------2-------------|
    E|---------------------------------------------------|
    
                                      F    G
    la 2º y 4º vez hace así   e|--------------------------|
                              B|--------1--3--------------|
                              G|--------2--0--------------|
                              D|--------------------------|
                              A|-----3--------------------|
                              E|--------------------------|
    
      D    C    F    G   D    C    F   G
    1)En carnavales de señales no verbales fue
      D    C    F    G   D    C    F   G
    descubriendo el lenguaje
    
  •     D              C            F          G
    e|----------------------------------1----------3-----|
    B|----------3-----------1-------1h3--------0h3-------|
    G|------0h2---------0h2-------2----------0-----------|
    D|-0-0-----------------------------------------------|
    A|--------------3-3---------3----------2-------------|
    E|---------------------------------------------------|
    
                                      F    G
    la 2º y 4º vez hace así   e|--------------------------|
                              B|--------1--3--------------|
                              G|--------2--0--------------|
                              D|--------------------------|
                              A|-----3--------------------|
                              E|--------------------------|
    
      D    C    F    G   D    C    F   G
    1)En carnavales de señales no verbales fue
      D    C    F    G   D    C    F   G
    descubriendo el lenguaje
    
  • +
    ¡Colabora con nosotros!
    Envíanos tu versión de esta canción

Letra de Hasta acá nos ayuda Dios
1)En carnavales de señales no verbales fue
descubriendo el lenguaje
del inconsciente en busca de alguien que lo pueda ver
a través del follaje.
*Mismo acordes*
1)Interpretó modestos gestos que en sí mismo vio
y comprendió el mensaje
Vacuna para incongruentes, se paró y gritó:
bendito aprendizaje!
2)Y de pronto sintió que se le inflaba el pecho,
vertiginosa sensación.
1) Entre ilusiones y comparaciones enjuició
toda una vida entera
Y hoy ve como un juicio que antes servía, hoy no sirvió
Ayer si, hoy cualquiera
1) Pero ahora ¿cómo se hace, cómo saco esto de acá?
¿Cómo empiezo de nuevo?
¿Cómo perdono? ¿Cómo me perdono a mí, además?
¿Cómo disfruto el juego?
2) Y de pronto sintió un nudo en la garganta
y sin embargo disfrutó.
3)Él le llamó aceptación a ese llanto sin consuelo
y desde ahí transformó la rigidez
del miedo cruel y paralizador
en impulso motor.
1) Fue en busca de su esencia una y mil vece y encontró
que ésta siempre mutaba,
de forma espacios, tiempos, todo acorde a la emoción
del momento en que estaba
1) Focalizo tanto en ahora
que temió perder completa la memoria
Fue entonces que se hizo conciencia y creyó comprender:
mi esencia no es mi historia, no!
2) Y de pronto sintió muy livianos los hombros
y rumbo al cielo se cayó.
3) Él le llamó plenitud a esa risa en carcajada
y desde ahí la virtud
de vivir libre o nada creció
Como un alud eligió ver la luz.
3) Él le llamó aceptación a ese llanto sin consuelo
y desde ahí transformo
la rigidez del miedo cruel y paralizador
en impulso motor.
3) Él le llamó plenitud a esa risa en carcajada
y desde ahí la virtud
de vivir libre o nada creció
Termina arpegiando
Moda de muchos, pasión de pocos ♥




[Hasta acá nos ayuda Dios acordes][Hasta acá nos ayuda Dios chords]
© LaCuerda.net · notícia legal · privacidade · es · en · pt · contato
DINAMICO