Cifras para Violão e Guitarra » P »Pedro Aznar » Ya no hay forma de pedir perdón (Tab)

Ya no hay forma de pedir perdón
Pedro Aznar

Letras, cifras e tablaturas para violão, guitarra, piano, ukulele e baixo

  •                                         Cm7
    e--10--10--10--10--10--10----6--5--3--------
    B---8---8---8---8---8---8-------------3--4--
    G--10--10---9---9---8---8------------------
    D------------------------------------------
    A------------------------------------------
    E------------------------------------------
                                D7
    e--7--8------------------------2--3--5--6--5-
    B-------8--------------3---------------------
    G----------8--7--5---------------------------
    D--------------------------------------------
    A-------------------0------------------------
    E--------------------------------------------
    
    Gm                       Bb/F      Cm7+9
    ¿Cómo voy a lograr que aún me quieras?
    F                 F/A            Bb Am7b5 (II-4-3) D7(I-3-2)
    ¿Cómo lograr que quieras escuchar?
    Gm           Bb/F         CM7+9   
    
  • e|--10--10--10--10--10--10----6--5--3--------|
    B|---8---8---8---8---8---8-------------3/4---|
    G|--10--10---9---9---8---8-------------------|
    D|-------------------------------------------|
    A|-------------------------------------------|
    E|-------------------------------------------|
                                D7
    e|--7--8---------------2/3--5--5/6--5--------|
    B|--------8---------3------------------------|
    G|-----------8--7----------------------------|
    D|-------------------------------------------|
    A|-------------------------------------------|
    E|-------------------------------------------|
    
    SOLm                           DOm
    Cómo voy a lograr que aún me quieras?
    FA                         SIb
    Cómo lograr que quieras escuchar?
    SOLm                     DOm
    Cuando este fuego me desvela
    
  •                                        DOm7
    e|--10--10--10--10--10--10----6--5--3--------|
    B|---8---8---8---8---8---8-------------3/4---|
    G|--10--10---9---9---8---8-------------------|
    D|-------------------------------------------|
    A|-------------------------------------------|
    E|-------------------------------------------|
                                RE7
    e|--7--8---------------2/3--5--5/6--5--------|
    B|--------8---------3------------------------|
    G|-----------8--7----------------------------|
    D|-------------------------------------------|
    A|-------------------------------------------|
    E|-------------------------------------------|
    
    SOLm                           DOm7
    Cómo voy a lograr que aún me quieras?
    FA                         SIb     LAm7b5 RE7
    Cómo lograr que quieras escuchar?
    SOLm                     DOm7
    
  • Ya no hay forma de pedir perdón
    
    
    Mayúsculas mayores
    Minúsculas Notas por teclas
    Barra (/)= teclas juntas
    Guion (-)= teclas a teclas
    
    
    INTRO:
    
    gl3-d#3-b3                a#3-a3-f3-g3-d3            g2
    
    
    Octava 3
                                                                                   
    f4/g4/a#4/d5      f4/g4/a#4/d5     e4/g4/a#4/d5     e4/g4/a#4/d5    
                                                        e3                      e3  
    
    
                                 d#5
    d#4/g4/a#4/d5      d#4/g4/a#4/d5     d4/g4/a#4/d5    
    d#3                       d#3                      d3
    
    
    
    
    a#5-a5-g5-d5-d#5-------b4-c5-g4-d#4-d4-c4-g4-----g4-f#4-g4-a4-g4-f#4 -----
    d4--------------c4---c4-----------a#3-----a#3----a2-----a2----------------------------
    
    
    ------------------------f#3------c4--a2------- g2
    d2-g2-a2---------d2------c3--------a#3----g3
    
    
    
    
    
    
    Patrones:
    
    P1:    c3/d#3----f3---a#3/d4-------c3/d#3----f3---a#3/d4---g3
             c2----------------f2-
  • +
    ¡Colabora con nosotros!
    Envíanos tu versión de esta canción

Letra de Ya no hay forma de pedir perdón
¿Cómo voy a lograr que aún me quieras?
¿Cómo lograr que quieras escuchar?
Cuando este fuego me desvela
pero despierto solo una vez más
¿Cómo lograr verte de nuevo?
¿Cómo he de recobrar tu corazón?
¿Cómo aceptar que todo ha muerto
y ya no hay forma de pedir perdón?
Qué mal, qué mal,
esta absurda y triste historia
que se pone cada vez peor
Qué mal, qué mal,
¿por qué ni puedo hablarte?
Temo que es así,
que ya no hay forma de pedir perdón
¿Cómo lograr que aún me quieras?
¿Cómo lograr que quieras escuchar?
Cuando este fuego me desvela...
¿Qué es lo que voy a hacer?
¿Qué es lo que voy a hacer
si ya no hay forma de pedir perdón?




[Ya no hay forma de pedir perdón acordes][Ya no hay forma de pedir perdón chords]
© LaCuerda.net · notícia legal · privacidade · es · en · pt · contato
DINAMICO