Cifras para Violão e Guitarra » P »Pedro Infante » Cien años (Tab)

Cien años
Pedro Infante

Letras, cifras e tablaturas para violão, guitarra, piano, ukulele e baixo

  •      G                    C                             G
    e|---3-3--3-3--3-3--3-1-0-0-|-2-0---------------------|-3-|
    B|---3-3--3-3--3-3--3-----1-|-----3-2-0---------------|-3-|
    C|-4------------------------|-----------2-0-----------|-4-|
    D|--------------------------|---------------0/2-0--0--|-5-|
    A|------------------------3-|---------------------3---|-5-|
    E|--------------------------|-------------------------|-3-|
    
       G         Am   D7  
    Pasaste a mi lado
                   Bm7 
    con gran indiferencia
                    Am
    tus ojos ni siquiera
        D7           G
    voltearon hacia mí.
                      Am    D7
    Te vi sin que me vieras
                         Bm7
    te hablé sin que me oyeras
    
  • Intro: A   F   A   F   A
    
                  Bm7
    Pasaste a mi lado
                     Amaj7
    con gran indiferencia
                     Bm7
    tus ojos ni siquiera
                    Amaj7
    voltearon hacia mí.
    
                       Bm7
    Te vi sin que me vieras
                          Amaj7
    te hablé sin que me oyeras
                  Bm7
    y toda mi amargura
           E7          A
    se ahogó dentro de mí.
    
    
  • A7       Bm        E
    Pasaste a mi lado
             A          Bm C#m
    con gran indiferencia
      Cm          Bm         E
    tus ojos ni siquiera
                    A
    voltearon hacia mi.
    
    A7                 Bm       E
    Te vi sin que me vieras
             A          Bm C#m
    te hable sin que me oyeras
    Cm          Bm         E
    y toda mi amargura
                       A
    se ahogo dentro de mi.
    
      Em    A7          D
    Me duele hasta la vida
    
  • INTRO: //Amaj7-Dmaj7-Dm7-Amaj7://
    
    
    Amaj7         Dmaj7   Dm7
    Pasaste a mi lado
                   Amaj7-Bm7-C#m
    con gran indiferencia
        Cm7          Bm7    E
    tus ojos ni siquiera
                    Amaj7
    voltearon hacia mi.
    
    Amaj7             Dmaj7   Dm7
    Te vi sin que me vieras
                          Amaj7-Bm7-C#m7
    te hable sin que me oyeras
       Cm7         Bm7
    y toda mi amargura
           E             A-A7
    se ahogo dentro de mi.
    
  •                           G               Cm                   G         |
    e|---7--7-|-7--7--7--7--|-7-6-5-3------|-|-8/10-8------------------------|
    B|--------|-------------|--------------|-|--------11-10-8----------------|
    G|-7----7-|-7--7--7--7--|-7-6-5-4------|-|----------------10-8-8-10-8-7~-|
    D|--------|-------------|--------------|-|-------------------------------|
    A|--------|-------------|--------------|-|-------------------------------|
    E|--------|-------------|--------------|-|-------------------------------|
    (x2) ||
    
                 Am7   D7
    Pasaste a mi lado
                   Bm7    (E7)
    con gran indiferencia
                  Am7     D7
    tus ojos ni siquiera
                    G
    voltearon hacia mí
    
                     Am7    D7
    Te vi sin que me vieras
    
  •                                              Am
    e|-------6/10--10--10--10--10--10--10---9---8---7------------|
    B|-----8/12--12--12--12--12--12--12--11--10---8--------------|
    G|-~7--------------------------------------------------------|
    D|-----------------------------------------------------------|
    
        D7                                 Bm  Bm7
    e|-8/10--8---------------------------------------------------|
    B|-6/8------11--10--8----------------------------------------|
    G|-6/8-----------------10--8--8--10--8/7---------------------|
    D|-6/8-------------------------------------------------------|
    
        Am                                       D7
    e|-------6/10--10--10--10--10--10--10---9---8---7------------|
    B|-----8/12--12--12--12--12--12--12--11--10---8--------------|
    G|-~7--------------------------------------------------------|
    D|-----------------------------------------------------------|
    
        G
    e|-8/10---8/10--8-------------------------------------12-----|
    
  • -------------------------
    
    (SOLO)
    
    |----------------------------------------10-8---------------------------|
    |----12-12--12-12--12-12--12-11-10-9-8--------11-10-8-------------------|
    |-----------------------------------------------------10-8-8/10-10-8-7--|
    |--9--------------------------------------------------------------------|
    |-----------------------------------------------------------------------|
    |-----------------------------------------------------------------------|
    
    (X2)
    
                 Am D7
    Pasaste a mi lado
                 Bm Bm7
    Con gran indiferencia
                   Am
    Tus ojos ni siquiera
        D7          G
    
  •           G*                   Am                   D7
    e|---------0-0-------|---------5--5-------|---------5--5-------|
    B|---------0-0-------|---------5--5-------|---------7--7-------|
    G|-------4-----------|-------6------------|-------5------------|
    D|-----5---------5---|-----7----------7---|-----7----------7---|
    A|---5---------------|---7----------------|---5----------------|
    E|-3---------------3-|-5------------------|-5----------------5-|
    
              G*                   Am                   D7
    e|---------0--0-------|---------5--5------|---------5--5-------|
    B|---------0--0-------|---------5--5------|---------7--7-------|
    G|-------4------------|-------6-----------|-------5------------|
    D|-----5----------5---|-----7----------7--|-----7----------7---|
    A|---5----------------|---7---------------|---5----------------|
    E|-3----------------3-|-5-----------------|-5----------------5-|
    
    
               G**
    e|-----------0-------0--|
    B|---------0---0-----0--|
    
  • ||-----7--7--7--7--7--7--3--------------------------|
    ||-----8--8--8--8--8--8-----5--4--3-----------------|
    ||-----------------------------------4--4--4--4-----|
    ||--9--------------------------------5--5--5--5--0--|
    ||--------------------------------------------5-----|
    ||-----------------------3--------------------------|
    
    |-----10-----8--6-------------------------------------------|
    |----8----8--------10--8--6--4--4h6p4--3--------------------|
    |---8-----8--------8---8------------------4--4--4--4-----0--|
    |-----------------------------------------5--5--5--5--0-----|
    |--6-----------------------------------------------5--------|
    |-------------------------------3---------------------------|
    
    |-----7--7--7--7--7--7--3--------------------------|
    |-----8--8--8--8--8--8-----5--4--3-----------------|
    |-----------------------------------4--4--4--4-----|
    |--9--------------------------------5--5--5--5--0--|
    |--------------------------------------------5-----|
    |-----------------------3--------------------------|
    
  • +
    ¡Colabora con nosotros!
    Envíanos tu versión de esta canción

Letra de Cien años
Pasaste a mi lado
con gran indiferencia
tus ojos ni siquiera
voltearon hacia mí.
Te vi sin que me vieras
te hablé sin que me oyeras
y toda mi amargura
se ahogó dentro de mí.
Me duele hasta la vida
saber que me olvidaste
pensar que ni desprecios
merezca yo de ti.
Y sin embargo sigues
unida a mi existencia
y si vivo cien años
cien años pienso en ti.
(se repite todo)




[Cien años acordes][Cien años chords]
© LaCuerda.net · notícia legal · privacidade · es · en · pt · contato
DINAMICO