Cifras para Violão e Guitarra » P »Las Pelotas » Hawaii (Tab)

Hawaii
Las Pelotas

Letras, cifras e tablaturas para violão, guitarra, piano, ukulele e baixo

  • Cm7              Bb7 
    Luna de miel en Hawai
    Cm7          Bb7 
    Acariciando arena
    Cm7                  Bb7 
    Los billetes flotan en el mar
    Cm7          Bb7                            ACORDES:
    Aquí no hay problemas
                                         |cuerdas: 123456                   |
    Que compro aquí, que compro allá     |                                  |
    Se pasa el día y debo gastar         |    Cm7: 34353x  (cejilla en 3)   |
    Quiero llevar recuerdos              |                                  |
    Quiero comprar una palmera           |  Bb 7+: 13231x  (cejilla en 1)   |
    
    Y veo cosas bonitas
    Saboreando frutos del mar
    Compraré esa montaña
    Que veo allá.
    
    Luna de miel en Hawai
    
  • INTRO: Cm - Dm
    
    Cm              Dm
    Luna de miel en Hawai
    Cm          Dm
    Acariciando arena
    Cm                  Dm              
    Los billetes flotan en el mar
    Cm          Dm
    Aquí no hay problemas
    
    Que compro aquí, que compro allá
    Se pasa el día y debo gastar
    Quiero llevar recuerdos
    Quiero comprar una palmera
    
    Y veo cosas bonitas
    Saboreando frutos del mar
    Compraré esa montaña
    Que veo allá.
    
  • e|-------------------10-11-13--11-10-11-10-----10-11-10-----------------
    B|---------10-11-13-------------------------13----------13-13----11-13--
    G|-9-10-12----------------------------------------------------10--------
    D|----------------------------------------------------------------------
    A|----------------------------------------------------------------------
    E|----------------------------------------------------------------------
    
    e|-10-10-10-----------------------------------------------
    B|----------13-13-11-11-10-10-8-10-11-13-11-11-10---------
    G|------------------------------------------------12-10---
    D|--------------------------------------------------------
    A|--------------------------------------------------------
    E|--------------------------------------------------------
    
    e|--------------------------------------------------------
    B|--------------------------------------------------------
    G|-10-12-10-10-8-8-7-8-7----------------------------------
    D|---------------------------
  • +
    ¡Colabora con nosotros!
    Envíanos tu versión de esta canción

Letra de Hawaii
Luna de miel en Hawai
Acariciando arena
Los billetes flotan en el mar
Aquí no hay problemas
Que compro aquí, que compro allá
Se pasa el día y debo gastar
Quiero llevar recuerdos
Quiero comprar una palmera
Y veo cosas bonitas
Saboreando frutos del mar
Compraré esa montaña
Que veo allá.
Luna de miel en Hawai
Los mozos todo el tiempo
Vienen y van
El mío no ha llegado
Debe traernos otra botella
Luna de miel en Hawai
El sueño realizado
Ahora volvemos y está todo mal
Ya no es Hawai, es Buenos Aires
Y todo era tan bello
Y como podía gozar
Ahora se pudrió todo, estamos acá.




[Hawaii acordes][Hawaii chords]
© LaCuerda.net · notícia legal · privacidade · es · en · pt · contato
DINAMICO