Cifras para Violão e Guitarra » P »Las Pelotas » Víctimas del cielo (Tab)

Víctimas del cielo
Las Pelotas

Letras, cifras e tablaturas para violão, guitarra, piano, ukulele e baixo

  • A  Aaug
    A  Aaug
    A  Aaug
    A  Aaug
    Bm Bm E
    
    Bm
    Habla, dime como estas
                    E
    y que hay en tu alma
                                 Bm
    cuéntame, que aquí hoy somos mas
     A              E
    victimas del cielo.
    
    Bm
    Llama, es adonde estas
              E
    y cuanto falta
                                 Bm
    
  • (A-F) X4
    (Bm-A-E)
    
     Bm
    Habla, dime como estas
                     E
    y que hay en tu alma
                                 Bm
    cuéntame, que aquí hoy somos mas
     A              E
    victimas del cielo.
    
     Bm
    Llama, es adonde estas
                 E
    y cuanto falta
                                 Bm
    cuéntame, que aquí hoy somos mas
     A              E
    victimas del cielo.
    
  • --------------------------------------------------------
    --------------------------------------------------------
    --------------------------------------------------------
    -----2-------------2------------------------------------
    -2-0----0-2-0--2-0-----0-2-0-----3-3-3-3-3--------------
    ---------------------------------1-1-1-1-1--------------x2
    
    
    -------------------------------------------------------------
    ----9-10-12---10--9--------------------12---10--9------------
    -----------11---11--9s11-11s9-------11---11---11--9s11-11s9--
    -------------------------------------------------------------
    -------------------------------------------------------------
    -------------------------------------------------------------
    
    --------------------------------------------------------------
    --------12---10--9-------------------12---10--9---------------
    -----11---11---11--9s11-11s9------11---11---11--9s11-11s9-----
    --------------------------------------------------------------
    --------------------------------------------------------------
    
  • +
    ¡Colabora con nosotros!
    Envíanos tu versión de esta canción
  • Tutorial
    HD
    Como tocar Victimas del Cielo de Las Pelotas en el bajo tutorial#28
    5:06

Letra de Víctimas del cielo
Habla, dime como estas
y que hay en tu alma
cuéntame, que aquí hoy somos mas
victimas del cielo.
Llama, es adonde estas
y cuanto falta
cuéntame, que aquí hoy somos mas
victimas del cielo.
¿Por que no estabas? ¿Donde ibas? ¿Que decías?
¿Por que encontraste la razón en la vergüenza?
No ves que al fin, estábamos los dos,
cubriéndonos del mundo entero.
Habla, dime como estas
y que hay en tu alma
cuéntame, que aquí hoy somos mas
victimas del cielo.
Y si no estas cubriendo el sol
y si no alcanza la respuesta del momento
para compartir el aire que nos queda
que nos queda, ah, ah, ah!
Llama, es adonde estas
y cuanto falta
cuéntame, que aquí hoy somos mas
victimas del cielo
victimas del cielo
victimas del cielo.




[Víctimas del cielo acordes][Víctimas del cielo chords]
© LaCuerda.net · notícia legal · privacidade · es · en · pt · contato
DINAMICO