Cifras para Violão e Guitarra » P »Pepe Aguilar » Miedo (Tab)

Miedo
Pepe Aguilar

Letras, cifras e tablaturas para violão, guitarra, piano, ukulele e baixo

  • INTRO:              2ª Guitarra        G - Bm - Em - C
    
    1ª Guitarra
    E ---3---1---0------------0---1-----3---1---0------------0---1----3---1---0--------------------
    A ----------------1---1----------------------------1---1-------------------------1-------------(x 20)
    D ---------------------------------------------------------------------------------------------
    G ---------------------------------------------------------------------------------------------
    B ---------------------------------------------------------------------------------------------
    E ---------------------------------------------------------------------------------------------
    
    
    G             Bm         Em
    Hace tanto tiempo sin saber de ti
                   C                D     Em
    Por fin me encuentro, frente a frente
                 Bm      C          D
    la extraña sensación, buscar adentro
    G        Bm            Em Bm             C   
    en libertad sentirme preso, frente al espejo
                 D
    
  • C          Em            Am
    Hace tanto tiempo sin saber de ti
                   F                G     Am
    Por fin me encuentro, frente a frente
                 Em      F          G
    la extraña sensación, buscar adentro
    C        Em            Am Em             F   
    en libertad sentirme preso, frente al espejo
                 G
    lloran mis miedos
    
    **Coda
                 F                   G
    Miedo de sentirme solo, teniéndote
                   Em         E7           Am
    miedo a no sentir tus manos, sobre mi piel
                  F                           G
    miedo a no saber que piensas, si te hago falta
                Em       E7            Am
    ganas de tirar mi ego, por la ventana
    
  •  C            G         Am       
    Hace tanto tiempo sin saber de ti
     Em            Dm                G
    por fin me encuentro frente a frente
    Am            Em  F          G
    Extraña sensacion buscar adentro
    C       G             Am
    en libertad sentirme preso 
     Em         Dm    F           G                  
    frente al espejo lloran mis miedos.
    
     
                 F               G
    miedo de sentirme solo teniendote 
                  Em                        Am
    miendo a no sentir tus manos sobre mi piel
                 F                           G
    miedo a no saber que piensas si te hago falta
                 Em                   Am
    ganas de tirar mi ego por la ventana
    
  • C   x32010      Am7/B  x22010      E   022100
    G   320033      Am     x02210      Em  022000
    F   133211      Dm     xx0231
    A#  x13331      G7     353433
    
    
    El rasgueo acústico lo pueden sacar escuchando la canción, es muy fácil.
    
    
      Guitar 1                                                          C
    
    E|--3-1-0-------0-1-3-1-0-------0-1-3-1-0-------0-1-3-1-0-------0-1-3-1-0-------0-1-3--|
    B|--------3---3-----------3---3-----------3---3-----------3---3-----------3---3--------|
    G|-------------------------------------------------------------------------------------|
    D|-------------------------------------------------------------------------------------|
    A|-------------------------------------------------------------------------------------|
    E|-------------------------------------------------------------------------------------|
     |                                                                                     |
     |Guitar 2 [acústica]                                                                  |
    E|------------------------------------------------------------------0------------------|
    
  • INTRO:              2ª Guitarra        G - Bm - Em - C
    
    1ª Guitarra eléctrica con efecto de DELAY con 32 m Sec
    
    E ---3---1---0------------0---1-----3---1---0------------0---1----3---1---0-----------
    A ----------------3---1---------------------------3---1------------------------3---1--(x 14)
    D ------------------------------------------------------------------------------------
    G ------------------------------------------------------------------------------------
    B ------------------------------------------------------------------------------------
    E ------------------------------------------------------------------------------------
    
    0:25
    
    E ------0---1---3---1---0----3/5---6/8---8--8--6--5--6----3/5---5--5--3--2----3------
    A ---1-------------------------------------------------------------------------------
    D -----------------------------------------------------------------------------------
    G -----------------------------------------------------------------------------------
    B -----------------------------------------------------------------------------------
    E -----------------------------------------------------------------------------------
    
    
  • Esto es un complemento de lo que ya habia, 
    solo agregue el intro, solo es por si 
    quieren modificarlo. Espero que alguien 
    pueda sacar la parte final y que le 
    sirva a alguien.
    
    e|-3---1---0-----------0---1---3---1---0---------|
    B|-------------3---3-----------------------3---3-|
    G|-----------------------------------------------|
    D|-----------------------------------------------|
    A|-----------------------------------------------|
    E|-----------------------------------------------|
    
    Esto se repite como 8 veces y despues:
    
    e|-3---1---0-----------0---1---3---1---0---------|
    B|-------------1---1-----------------------1---1-|
    G|-----------------------------------------------|
    D|-----------------------------------------------|
    A|-----------------------------------------------|
    E|-----------------------------------------------|
    
    y esto se repite como 12 veces, pero entra en la 
    6ta vez:
    
    e|-------8-8---6-5-3---3---1---0-----------0---1-|
    B|--6/8-----------------------
  • +
    ¡Colabora con nosotros!
    Envíanos tu versión de esta canción

Letra de Miedo
1ª Guitarra
Hace tanto tiempo sin saber de ti
Por fin me encuentro, frente a frente
la extraña sensación, buscar adentro
en libertad sentirme preso, frente al espejo
lloran mis miedos
Miedo de sentirme solo, teniéndote
miedo a no sentir tus manos, sobre mi piel
miedo a no saber que piensas, si te hago falta
ganas de tirar mi ego, por la ventana
y me pregunto ¿que hago aquí?
sin ti
Esto de mostrarme frente al mundo
a cara limpia, no se si es justo
se dice que el amor, puede ser ciego
en libertad sentirme preso, frente al espejo
lloran mis miedos
Miedo de sentirme solo, teniéndote
miedo a no sentir tus manos, sobre mi piel
miedo a no saber que piensas, si te hago falta
ganas de tirar mi ego, por la ventana
y me pregunto ¿que hago aquí?
sin ti
Y tu mi amigo ¿Qué pensaras?
Si estas igual
Que miedo
Tienes miedo
Siempre miedo
Siempre miedo ..siempre miedo
Tanto miedo
Saludos a Zapotlanejo, Jalisco y mis compañeros Médicos del CUCS generación 98 -04.
Roberto Carlos Marín. TE AMO MADDO MYRIAM.




[Miedo acordes][Miedo chords]
© LaCuerda.net · notícia legal · privacidade · es · en · pt · contato
DINAMICO