Cifras para Violão e Guitarra » P »Los Pericos » Pupilas lejanas (Tab)

Pupilas lejanas
Los Pericos

Letras, cifras e tablaturas para violão, guitarra, piano, ukulele e baixo

  • D#
    Tiempo al tiempo 
    Bb              Cm   G#
    Tengo que esperar
         D#          Bb          Cm   G#
    Es la idea, y suele condenar
    D#          Bb            Cm
    Tu mirada vuelve a penetrar 
           G#
    Mis pupilas lejanas
    D#        Bb           Cm  G#
    A ver si todo acaba aquí.
    
    D#       Bb        Cm     G#
    Uhh, no me dejes morir así
    D#       Bb        Cm      G#
    Uhh, no me dejes caer en la trampa
    
    D#       Bb                 Cm     G#
    Veo tu sombra contra la pared 
    
  • G               D            Em    C
    Tiempo al tiempo tengo que esperar
    G            D            Em    C
    Es la idea, y suele condenar
    G         D             Em
    Tu mirada vuelve a penetrar
    C
    Mis pupilas lejanas
    G        D           Em    C
    A ver si todo acaba aquí.
    
    G     D          Em    C
    Uhh, no me dejes morir así
    G     D         Em    C
    Uhh, no me dejes caer en la trampa
    
    G           D          Em    C
    Veo tu sombra contra la pared
    G           D            Em    C
    Donde estoy a donde es mi lugar
    
  • (D# G  Cm  G#)
    
    eI----------------------------------
    bI----------------------------------
    gI-84/51---11--7-8-10-11--1/31-0-
    
    
    D#
    Tiempo al tiempo
    G             Cm    G#
    Tengo que esperar
    D#            G           Cm   G#
    Es la idea, y suele condenar
    D#        G              Cm
    Tu mirada vuelve a penetrar
           G#
    Mis pupilas lejanas
    D#        G            Cm  G#
    A ver si todo acaba aquí.
    
    
  • B: Bend
    BFULL: Bend de un tono
    B¼: Bend de cuarto de tono
    S: Slide
    
    Intro
    
    ----------11-11v--13b¼--11--13---11--13--13b¼----11------11-------------
    ---11h13---------------------------------------------13-------13------11
    ------------------------------------------------------------------12----
    -----------------------------------------------------------------------
    -----------------------------------------------------------------------
    -----------------------------------------------------------------------
    
    -----------------------------------------------------------------------
    ---------------------------------------------------------------------8-
    ---12--10--8--10--------8--10---8h10--8--------8--10--10b¼----8--10----
    --------------------10---------------------10--------------------------
    -----------------------------------------------------------------------
    -----------------------------------------------------------------------
    
  • Eb
    Tiempo al tiempo
    Bb              Cm   G#
    Tengo que esperar
         Eb          Bb          Cm   G#
    Es la idea, y suele condenar
    Eb          Bb            Cm
    Tu mirada vuelve a penetrar
           G#
    Mis pupilas lejanas
    Eb        Bb           Cm  G#
    A ver si todo acaba aquí.
    
    Eb       Bb        Cm     G#
    Uhh, no me dejes morir así
    Eb       Bb        Cm      G#
    Uhh, no me dejes caer en la trampa
    
    Eb       Bb                 Cm     G#
    Veo tu sombra contra la pared
    
  • Intro
    |----------------|
    |----------------|
    |-----------11\--|
    |----------------|
    
    |----------------|----------------|----------------|----------------|
    |--------8-8-----|----------------|----------------|----------------|
    |6---6-6-----6---|----------------|3-----3-5---6---|----------------|
    |----------------|--3-3-3-3---3---|----------------|4\--------------|
    
    |----------------|----------------|----------------|----------------|
    |--------8-8-----|----------------|----------------|----------------|
    |6---6-6-----6---|----------------|6-6----5---3----|----------------|
    |----------------|--3-3-3-3---3---|----------------|4-----4-6--4----|
    
    Verso A x4
    |----------------|----------------|----------------|----------------|
    |--------8-8-----|----------------|----------------|----------------|
    |6---6-6-----6---|----------------|3-----3-5---6---|----------------|
    |----------------|--3-3-3-3---3---|----------------|4\--------------|
    
    Estribillo x2
    |----------------|--------
  •       _____________________________________
         /
    +---+---------------------------------------+---+
    |   | 1 | 2 | 3 | 4 | 5 | 6 | 7 | 8 | 9 | 10| C |
    +---+---------------------------------------+---+
          _____________________________________/
    
    Tiempo al tiempo tengo que esperar
     5  5  5  5 (4)(5) 5 (4) 5
    es la idea y suele condenar
     5  5  5  5 (4)(5) 5 (4) 4
    tu mirada vuelve a penetrar
     5  5  5  5  6 (5) 5 (4) 5
    mis pupilas lejanas
     5 (5) 6 (5) 5 (4) 4
    a ver si todo acaba aqui
     4  4  4  4  5 (4) 4 (4) 5
    
    Uh no me dejes morir asi
     7     7 (7)(6) 6 (5) 5    (6) 7
    uh no me dejes caer en la trampa
     7     7 (7)(6) 6 (5) 5     5  4 (4) 4
    
    Veo tu sombra en la pared
     5  5 (4)(5) 5 (4) 5
    donde estoy a donde es mi lugar
     5  5  5 (4)(5) 5 (4) 4
    paredon me vienes a buscar
     5  5  5  5  6 (5) 5 (4) 5
    tu venganza me alcanza
     5 (5) 6 (5) 5 (4) 4
    a ver si todo acaba aqui
     4  4  4  4  5 (4) 4 (4) 5
    
    Uh no me dejes morir asi
     7     7 (7)(6) 6 (5) 5    (6) 7
    uh no me dejes caer en la trampa
     7     7 (7
  • +
    ¡Colabora con nosotros!
    Envíanos tu versión de esta canción
  • Tutorial
    HD
    Explicado - Como tocar "Pupilas lejanas" de Los Pericos en el bajo tutorial#205
    11:02

Letra de Pupilas lejanas
Tiempo al tiempo tengo que esperar
Es la idea, y suele condenar
Tu mirada vuelve a penetrar
Mis pupilas lejanas
A ver si todo acaba aquí.
Uhh, no me dejes morir así
Uhh, no me dejes caer en la trampa
Veo tu sombra contra la pared
Donde estoy a donde es mi lugar
Paredon me vienes a buscar Tu venganza me alcanza
A ver si todo acaba aquí
Uhh, no me dejes morir así
Uhh, no me dejes caer en la trampa
Sé que ya todo se ha dicho
Que mi andar ya no es igual
Que mis penas son tu condena
Que mis ojos son la frialdad.
Sé que has dado justo en mi pecho
Munición a voluntad
Déjame salir de este encierro
No soy tu hombre ni tu verdad.
Uhh, no me dejes morir así
Uhh, no me dejes caer en la trampa
Tiempo al tiempo tengo que esperar
Es la idea, y suele condenar
Tu mirada vuelve a penetrar
Mis pupilas lejanas
A ver si todo acaba aquí.
Uhh, no me dejes morir así
Uhh, no me dejes caer en la trampa




[Pupilas lejanas acordes][Pupilas lejanas chords]
© LaCuerda.net · notícia legal · privacidade · es · en · pt · contato
DINAMICO