Cifras para Violão e Guitarra » P »Perras on the Beach » Puchos (Tab)

Puchos
Perras on the Beach

Letras, cifras e tablaturas para violão, guitarra, piano, ukulele e baixo

  •              G                A
    No quiero pensar en ir a comprar
                 G                A
    Puchos otra vez mas porque no da.
    
          G                A
    Y ademas me hacen muy mal.
    
                 G       A
    Te hace muy mal.
    
          Dmaj7
    Y mis besos
    
    G   A#
        Deben ser mas feos
    
          Dmaj7
    y mis labios
    
    
  • e|-----------|---------|-------|-------|---------|
    B|-----------|---------|-------|-------|---------|
    G|-----------|---------|-------|-------|---------|
    D|-4-2-------|-----4---|---2-4-|-4-2-0-|-0-4-5/7-|
    A|-----5-4-2-|---2---4-|-4-----|-------|---------|
    E|-----------|-3-------|-------|-------|---------|
    
    e|---------|------------|---------------|
    B|---------|------------|---------------|
    G|---------|------------|---------------|
    D|-7-4-7-9-|-9-9-9-7-5-4|-4-5-4---------|
    A|---------|------------|-------7-5~----|
    E|---------|------------|------------5~-|
    
    VERSO
                 G                A
    No quiero pensar en ir a comprar
                 G                A
    Puchos otra vez mas porque no da.
    
    
  • +
    ¡Colabora con nosotros!
    Envíanos tu versión de esta canción

Letra de Puchos
No quiero pensar en ir a comprar
Puchos otra vez mas porque no da.
Y ademas me hacen muy mal.
Te hace muy mal.
Y mis besos
Deben ser mas feos
y mis labios
deben ser un asco.
Y mis besos
Deben ser mas feos
y mis labios
deben ser un asco.
(Acrds del verso)
Prefiero ir a comprar chocolate, y te convido la mitad si vos querés
Y después podemos correr hasta caer.
(Acrds del estribillo)
No quiero ser un pancho por comprar cigarrillos
porque esa imagen se te queda en el cerebro,
y yo pienso ay que feo
y yo pienso ay que feo
y yo pienso ay que feo




[Puchos acordes][Puchos chords]
© LaCuerda.net · notícia legal · privacidade · es · en · pt · contato
DINAMICO