Cifras para Violão e Guitarra » P »Perrozompopo » Entre Remolinos (Tab)

Entre Remolinos
Perrozompopo

Letras, cifras e tablaturas para violão, guitarra, piano, ukulele e baixo

  • F#maj                     F#Maj/G#
    Dejo saber en mi arena sus pies,
    F#maj                    F#Maj/G#
    dejo saber en mis labios su sed,
    F#maj                               F#Maj/G#
    juntos probamos la aurora, el suave murmullo
                        F#
    el imán y la flor, fuimos casi un muro,
         F#Maj/G#
    casi viento, casi sal,
    F#maj                F#Maj/G#
    fuimos casi nada y todo de una sola vez
    F#
    todo de una sola vez.
    
    F#maj-F#Maj/G#- F#maj-F#Maj/G#
    
    
    F#maj                     F#Maj/G#
    Los dedos iban tanteando, entre piel y piel,
    
  • LA intro:
       F#*                          G#m*
    e/---------------------------**-------2----2-------2---------
    B/--------0----0-----0-------**-----0----0-------0-----0-----
    G/------3-----3-----3------3-**---3-----3------3------3------
    D/----2-----2------2-----2---**------------------------------
    A/---------------------------**------------------------------
    E/--0-------------0----------**-4-------------4--------------
    
    
    esta misma tablatura se hace
    en la estrofa......
    
    
      Dejo caer en mi arena sus pies
      Dejo saber en mis labios su sed
      Juntos probamos la noche el suave murmullo el imán y la flor
      Fuimos casi un muro casi viento casi sal fuimos casi nada y todo
      De una sola vez todo de una sola vez
    
    
  •      F#7add  F#/G#   C#m13
    E||--0----|--2----|--0----|------|------|------||
    B||--0----|-------|--0----|------|------|------||
    G||--3----|--3----|--3----|------|------|------||
    D||--4----|--4----|--4----|------|------|------||
    A||--4----|-------|--4----|------|------|------||
    E||--0----|--4----|--2----|------|------|------||
    
    
    E||-----------------0----|----------------------|------------1---------|
    B||------------0---------|-------0--------------|-------0--------------|
    G||-------3--------------|--3---------3---------|--3--------------3----|
    D||----------------------|----------------------|----------------------|
    A||----------------------|----------------------|----------------------|
    E||--0-------------------|-----------------4----|----------------------|
    
    
    
    ----------------------|--1-------------------|------||
    --0--------------0----|------------0---------|------||
    
  • +
    ¡Colabora con nosotros!
    Envíanos tu versión de esta canción

Letra de Entre Remolinos
Dejo saber en mi arena sus pies,
dejo saber en mis labios su sed,
juntos probamos la aurora, el suave murmullo
el imán y la flor, fuimos casi un muro,
F#Maj/G#
casi viento, casi sal,
fuimos casi nada y todo de una sola vez
todo de una sola vez.
Los dedos iban tanteando, entre piel y piel,
era el reconocimiento de sudores, de su nombre
y fuimos casi un muro, casi viento, casi sal
fuimos casi nada y todo de una sola vez,
de una sola vez, de una sola vez.
Y nos quedamos ahí como bordando el dolor,
como sacando del mar el rostro para llorar
y nos quedamos ahí con la certeza de estar enredados,
entre remolinos y su amoooor y su amoooor
y su amoooor y su amooooor.
Los dedos iban tanteando, entre piel y piel,
era el reconocimiento de sudores, de su nombre
y fuimos casi un muro, casi viento, casi sal
fuimos casi nada y todo de una sola vez,
de una sola vez, de una sola vez.
Y nos quedamos ahí como bordando el dolor,
como sacando del mar el rostro para llorar
y nos quedamos ahí con la certeza de estar enredados,
entre remolinos y su amoooor y su amoooor
Y nos quedamos ahí como bordando el dolor,
como sacando del mar el rostro para llorar
y nos quedamos ahí con la certeza de estar enredados,
entre remolinos y su amoooor y su amoooor
y su amoooor y su amooooor.
ACORDES:
ESTOS SIGNOS SON COMO F# PERO SIN LA BARRA Y EL
PUNTEO ES FÁCIL OIGAN LA CANCION Y SUENENLO.
5-X- 5-X-
4-4- 4-4-
3-3- 3-3-
LA X SIGNIFICA QUE NO SE TOCA LA CUERDA AL PUNTEARSE




[Entre Remolinos acordes][Entre Remolinos chords]
© LaCuerda.net · notícia legal · privacidade · es · en · pt · contato
DINAMICO