Cifras para Violão e Guitarra » P »Peso Pluma » Lady Gaga (Tab)

Lady Gaga
Peso Pluma

Letras, cifras e tablaturas para violão, guitarra, piano, ukulele e baixo

  •    Fm.       D#.      C#.      A#m
    6|--1--   6|-----  6|-----   6|--1--
    5|--2--   5|--6--  5|--6--   5|--1--
    4|--2--   4|--5--  4|--5--   4|--3--
    3|--1--   3|--8--  3|--8--   3|--3--
    2|--1--   2|-----  2|-----   2|--2--
    1|--1--   1|-----  1|-----   1|--2--
    
    
    Fm            D#        C#
    Dom Perignon Lady Gaga, lentes en la cara
    A#m
    Tusi lavada
    Fm            D#        C#
    Triple lavada y una bandida que me llama
    A#m
    Quieren mi lana
    Fm
    Y no está mal
    D#                    C#
    
  •     Fm          D#           C#         A#m
    E|-8-0-0--  E|-0-0-0-0  E|-0-0-0-0-  E|-6-0-0-
    B|-8-9-0--  B|-0-0-0-0  B|-0-0-0-0-  B|-6-0-0-
    G|-8-0-10-  G|-0-0-0-8  G|-0-0-0-6-  G|-6-0-0-
    D|-8-0-10-  D|-5-0-0-0  D|-3-0-0-0-  D|-0-0-8-
    A|-8-0-0--  A|-0-6-0-0  A|-0-4-0-0-  A|-0-0-0-
    E|-0-0-0--  E|-0-0-0-0  E|-0-0-0-0-  E|-0-0-0-
    
    Intro: Fm D# C# A#m (solo rasgueo)
           Fm D# C# A#m x4
    
     Fm (Rasgueo)      D# (Rasgueo)
    Dom Perignon Lady Gaga
                  C#           A#m
    lentes en la cara, tussy lavada.
      Fm              D#                C#
    Triple lavada y una bandida que me llama
               A#m
    Quieren mi lana.
               Fm            D#             C#
    
  • E|--8/11--11-11-11--11--11--8-8/9----9--9--9--8--9-8-8/4-4---9-8-8/4-4—4-4|
    B|--9/13--13-13-13--13--13--9-9/11--11-11-11--9-11-9—9/6-6--11-9-9/6-6—6-6|
    G|------------------------------------------------------------------------|
    D|------------------------------------------------------------------------|
    A|------------------------------------------------------------------------|
    E|------------------------------------------------------------------------|
    
    E|-----11-|-------11-|----|----9---|-8/4-4-9--8-8/4--4-|
    B|--13----|-13-13----|-13-|-11---9-|-9/6-6-11-9-9/6--6-|
    G|--------|----------|----|--------|-------------------|
    D|--------|----------|----|--------|-------------------|
    A|--------|----------|----|--------|-------------------|
    E|--------|---(x2)---|----|--(x3)--|-------------------|
    
    E|---------------|
    B|----9----11h13-|
    G|-10---10-------| (Esta separado pero va seguido)
    D|---------------|
    A|---------------|
    E|---------------|
    
  • +
    ¡Colabora con nosotros!
    Envíanos tu versión de esta canción

Letra de Lady Gaga
5|--2-- 5|--6-- 5|--6-- 5|--1--
4|--2-- 4|--5-- 4|--5-- 4|--3--
3|--1-- 3|--8-- 3|--8-- 3|--3--
Dom Perignon Lady Gaga, lentes en la cara
Tusi lavada
Triple lavada y una bandida que me llama
Quieren mi lana
Y no está mal
Porque me seduce como animal
Ninguna sube nada al Instagram
(se repiten los acordes en la misma progresión durante toda la cancion)
Puras influencers bien placosas las que navegamos
Y las volamos
Y una' privadas en yates, tronamos las pacas
Y sin Yolanda
Me vo' a enfiestar
Polvito rosa, plumita de wax
Esa estructura vale 30k
No puedes pagar, no te va a alcanzar
Viviendo en el San Andrés, pero de a deveras
Carros y feria
Tres estrellas me atoraron, la clave en caliente
Desafanaron
Music y cocaine
Me gusta el Lambo, pero usé el Mercedes
Esa es muy bella y se deja querer
Le gusta Grecia y quiere mi Cartier
Oh-oh-oh-oh-oh-oh
Ah
Ah-ah-ah-ah-ah-ah
Ah
Y así nomás, compa Peso, compa Junior
Compa Gabito, Doble
Uh
¡Cha-chau!
Y pura Doble P, viejillo
Que siga la mata dando, compa Junior
Compa Gabito
Once, número de suerte, 7, bien pendientes
Y andamos fuertes
Zumbando en el RZR, máscaras, polvo y ambiente
Brillan mis dientes
No soy fresón
Pero en Egipto shishas fumo yo
Para mariscos frescos, en Japón
Tira jodido, lira jodidón
Makabelico sonando, las güeras bailando
Con beat malandro
Pura encapuchada bélica, no pasa nada
Nadie las para
¿Que quiénes son?
Eso mismito me pregunto yo
Cada saludo lleva un billetón
Pura Louis Vuitton, trae un flow cabrón
Dom Perignon Lady Gaga, lentes en la cara
Tusi lavada
Triple lavada y una bandita que me llama
Quieren mi lana
Y no está mal
Porque me seduce como animal
Ninguna sube nada al Instagram
Oh-oh-oh-oh-oh-oh
Ah
Ah-ah-ah-ah-ah-ah
Ah




[Lady Gaga acordes][Lady Gaga chords]
© LaCuerda.net · notícia legal · privacidade · es · en · pt · contato
DINAMICO