Cifras para Violão e Guitarra » P »los Piojos » Angelito (Tab)

Angelito
los Piojos

Letras, cifras e tablaturas para violão, guitarra, piano, ukulele e baixo

  •     Em                   Em                   C
    |---------------------------------------------------------------------------
    |---------------------------------------------1-----------------------------
    |---------------------------------------------0-----------------------------
    |---2-----2--------------2-----2--------------2-----------------------------
    |---2-----2--------------2-----2----------2---3-----------------------------
    |---0-----0-----0--3--2--0-----0-----0--3----------------------------------
    
    
    A
    Harto del viejo borracho
    F
    Angelito camina por la calle
    A
    ángel caído va
    F
    ángel caído y sin talle
    A
    Una revancha quizás
    F
    
  •     Em  Em            Em                 C
    e|---------|------------|--------------------||
    b|---------|------------|----------------1---||
    g|---------|------------|----------------0---||
    d|--2---2--|----------2-|-2--------------2---||
    a|--2---2--|----------2-|-2-------2------3---||
    e|--0---0--|-0--3--2--0-|-0--0--3------------||
    
    Guitarra 2:
        Em  Em            Em                 C
    e|--0---0--|----------0-|-0--------------0---||
    b|--0---0--|----------0-|-0--------------1---||
    g|--0---0--|----------0-|-0--------------0---||
    d|--2---2--|----------2-|-2--------------2---||
    a|--2---2--|----------2-|-2--------------3---||
    e|--0---0--|----------0-|-0------------------||
    
    Bajo:
    g|---------|------------|-----------|--------||
    d|---------|------------|-----------|---2/---||
    
  • +
    ¡Colabora con nosotros!
    Envíanos tu versión de esta canción

Letra de Angelito
Harto del viejo borracho
Angelito camina por la calle
ángel caído va
ángel caído y sin talle
Una revancha quizás
a lo que no pudo ser
bronca que raja la espalda
se está haciendo tarde
y parece que va a llover.
Harto del viejo borracho
Angelito camina por la calle
un poco por caminar
y mucho por olvidarse
ángel caído va
a lo que no pudo ser
tirando de una esperanza
se está haciendo tarde
y parece que va a llover.
ESTRIBILLO:
Voy a caminar, voy a descender
el subte tomar, y después veré
hacia aquel lugar, no quiero volver
puedo conversar con una pared...
Subido al límite
del viejo edificio
Angelito sonríe y se excita
de pensar en caer.
Caer caer
borde del atardecer
todo por un precipicio
se está haciendo tarde
y parece que va a llover.
ESTRIBILLO




[Angelito acordes][Angelito chords]
© LaCuerda.net · notícia legal · privacidade · es · en · pt · contato
DINAMICO