Cifras para Violão e Guitarra » P »los Piojos » Vine hasta aqui (Tab)

Vine hasta aqui
los Piojos

Letras, cifras e tablaturas para violão, guitarra, piano, ukulele e baixo

  • G
    Vine hasta aquí
                   B
    Para poder abrazarte y senti
                         G
    Que ya tus brazos se niegan a ir
                   B
    Hacia los mios lentos.
    
    
    Hoy vine hasta aquí
    Dejando atrás el sabor a ciudad
    Y la amargura que intento cambiar
    No sea mi alimento.
    
    
    Estribillo:
    C                                  A
    Y lo mejor que me pudo pasar en el viaje
    G
    
  • (G - F - Em - C - D) x2
    
       G           F            Em                               C   D
    e|-------------------------|-----------------------------------|
    B|-------------------------|-----------------------------------|
    G|-7-----------5---------5-|-4-----6-----7-----6-----4-----7-5-|
    D|---9-7-5-7-9---7-5-3-7---|---5-----5-----5-----5-----5-------|
    A|-------------------------|-----7-----7-----7-----7-----7-----|
    E|-------------------------|-----------------------------------| x2
    
    
    
    verso
    e|---------------2-4-2---4-4---4-------4-4---2---------------2-0-----|
    B|5-5-5-5----5-5-------5-----4---4-4-4-----4---5-4-5---5-5-5-----4-1-|
    G|------------------------------------------------------------------1|
    D|-------------------------------------------------------------------|
    A|-------------------------------------------------------------------|
    E|-------------------------------------------------------------------|
    
    
  • Intro, intermedios y final:
    G----------------------  G--------------------
    D----------------------  D--------------------
    A-77--------456--------X3A-33333333-5555555---
    E----3345-5------------  E--------------------
      Em    A                  C        D
    
    Verso:
    G---------------------------------
    D--------------------1-2-4-4-2-1--
    A----2-3-5-5-3-2---2------------2-
    E--3------------3-----------------
       G               B
    
    Estribo:
    G--------------------------------------
    D--------------------------------------
    A-333333333333-------------------------
    E-----------------555555555555---------
      C               A
    
    G--------------------------------------
    D--------------------------------------
    A-----------------222222222222---------
    E-333333333333-------------------------
      G               B
    
    Solo de guitarra:
    
    G-----------------------------------
    D-----------------------------------
    A-----------------------------------
    E-333333333333----111111111111------
      G  
  • Armonica en A(la)
    
    intro
    
    (4)teue 4(5)5 5
    (4)teue 4(5)5 5
    (4)teue 4(5)5(5)(6)(5)4(4)teue
    (4)eue 4(5)5 5
    (4)teue 4(5)5 5
    (4)teue 4(5)5(5)(6)(5)4(4)teu
    
    2 solo
    
    (4)teue 4(5)5 5
    (4)teue 4(5)5 5
    (4)teue 4(5)5(5)(6)(5)4(4)teu
    
    solo del final
    
    (4)teue 4(5)5 5
    (4)teue 4(5)5 5
    (4)teue 4(5)5(5)(6)(5)4(4)teue
    (4)eue 4(5)5 5
    (4)teue 4(5)5 5
    (4)teue 4(5)5(5)(6)(5)4(4)teu "(5)"
    
    "(x)" trmolo de mano abrir y cerrar
    rapidamente la mano varias veces
  • Los numeros entre parentesis son aspirados.
    Y las letras de adentro del parentesis indican lo
    que debes pronunciar al aspirar.
    
    Version original:
    Se toca con la armonica en LA
    
    Intro:
    (4 e u e) 4 (5 tue) 5 5
    (4 e u e) 4 (5 tue) 5 5
    (4 e u e) 4 (5 tue) 5 (6)5(5) 4 (eue)
    
    (4 e u e) 4 (5 tue) 5 5
    (4 e u e) 4 (5 tue) 5 5
    (4 e u e) 4 (5 tue) 5 (5)(6)(5) 4 (eu)
    
    vine hasta aqui...
    
    En el medio hace asi:
    (4 e u e) 4 (5 tue) 5 5
    (4 e u e) 4 (5 tue) 5 5
    (4 e u e) 4 (5 tue) 5 (5)(6)(5) 4 (e u)
    
    
    Final:
    (4 e u e) 4 (5 tue) 5 5
    (4 e u e) 4 (5 tue) 5 5
    (4 e u e) 4 (5 tue) 5 (5)(6)(5) 4 (eue)
    
    (4 e u e) 4 (5 tue) 5 5
    (4 e u e) 4 (5 tue) 5 5
    (4 e u e) 4 (5 tue) 5 (5)(6)(5) 4 (eue) (5)
    
    La ultima nota se hace abriendo y cerrando
    la mano muchas veces.
  • Bueno, se toca con la armonica en DO, las notas con - son
    aspiradas, el * quiere decir un bending (*** quiere decir 3).
    Esta es la melodia del tema, el arreglo del tema de armonica
    ya lo mandaron.
    
    
    Vine hasta aqui
    
    
    
    4   4    4   4
    Vine hasta aqui
    4 4  -4 5 -4 4  5   5  -3  5
    para poder abrazarte y sentir
    -3  -3  -3 5  5  -3  4  4  4  4
    que ya tus brazos se niegan a ir
    4  4  4   -4  4  -3  -3***
    hacia los mios juntos.
    
    
    4   4   4    4   4
    Hoy vine hasta aqui
    4  4  -4 5 -4 4  5   5  -3  5
    dejando atras el sabor a ciudad,
    -3  -3  -3 5  5  -3  4  4  4  4
    y la amargura que intento cambiar
    4   4 4 -4 4 -3  -3***
    hoy sea mi alimento.
    
    
    -5 -5 -5 -5 -5 6  -6  6  -5  -6 6 -5 5   -4
    Y lo mejor que me pudo pasar en el viaje
    4   -4  5  5  4  5  5  4  5
    fue mirar el paisaje y seguir,
    4   -4  5  5  -3  5  5  -3  5
    fue mirar el paisaje y seguir...
    
    
    4  4   4   4
    Tan tonto fui,
    4 4  -4 5 -4 4  5   5  -3  5
    aquella tarde me hiciste dudar,
    -3  -3  -3 5  5  -3  4  4  4  4
    trabaste mi alma con Tu frialda
  • +
    ¡Colabora con nosotros!
    Envíanos tu versión de esta canción
  • Tutorial
    HD
    Explicado - Como tocar "Vine hasta aquí de nada" de Los Piojos en el bajo tutorial#251
    8:36

Letra de Vine hasta aqui
Vine hasta aquí
Para poder abrazarte y senti
Que ya tus brazos se niegan a ir
Hacia los mios lentos.
Hoy vine hasta aquí
Dejando atrás el sabor a ciudad
Y la amargura que intento cambiar
No sea mi alimento.
Estribillo:
Y lo mejor que me pudo pasar en el viaje
Fue mirar el paisaje y seguir,
fue mirar el paisaje y seguir......
Tan tonto fui
Aquella tarde me hiciste duda,
Trabaste mi alma con tu frialdad
Amor siguiendo al viento.
Y el miedo a sufrir
Hoy me congela en el rancho peor
Si hace frio que venga el calor
Yo no quiero estar viejo.
Y lo mejor que me pudo pasar en el viaje
Fue mirar el paisaje y seguir,
Fue mirar el paisaje y seguir...... (bis)
Y al volver
A mi querida ciudad contare
A los amigos que un dia deje
Esta aventura simple.
Voy a mentir
Cuando les diga que ya supere,
Que nunca hubo dolor en mi piel,
Que nada tuyo existe, nena.
Y lo mejor que me pudo pasar en el viaje
Fue mirar el paisaje y seguir,
Fue mirar el paisaje y seguir...... (bis)
Final con armonica sobre: Em A Em A Em A C D x 2




[Vine hasta aqui acordes][Vine hasta aqui chords]
© LaCuerda.net · notícia legal · privacidade · es · en · pt · contato
DINAMICO