Cifras para Violão e Guitarra » P »los Piojos » Que decis (Tab)

Que decis
los Piojos

Letras, cifras e tablaturas para violão, guitarra, piano, ukulele e baixo

  •      G7                                       G7 G7
    e|----------------------------------------|----------|
    B|----------------------------------------|----------|
    G|----------------------------------------|----------|
    D|-------5-----3--5-----------5-----3--5--|---5--5---|
    A|----------5--------------------5--------|---5--5---|
    E|---3---------------0h3--3---------------|---3--3---|
    
    
    
    Base estrofas:
    
         E                                    
    e|------------------------------------------|
    B|------------------------------------------|
    G|--------------------0h1-------------------|
    D|-------2-----0--2-------------2-----0--2--|
    A|----------2---------------2------2--------|
    E|---0--------------------------------------|
    
    
  • bue aca les parte de un temazo de los piojos... de las notas
    no estoy muy seguro pero creo esto suena bien..
    
    
    1>--------------------------------------------------------
    2>--------------------------------------------------------
    3>--------------------------------------------------------
    4>-----5---3-5--------5---3-5-----------------------------
    5>-------5-----1/3--3---5---------------------------------
    6>--3-----------------------------------------------------
    
    ... cuando empieza la armonica, se remarca el SOL..
    
    Asi..
    
    
    1>-----------------------------------------------------
    2>-----------------------------------------------------
    3>-----------------------------------------------------
    4>-----5---3-5-5-5-5---3-5-----------------------------
    5>-------5-----5-5---5---------------------------------
    6>--3----------3-3-------------------------------------
    
    
    y la armonica es mas o menos asi
    
    3 (3) 4 (4) 5 (4)b 4 3 (4)b 4 (3) 3
    
    
    este es el punteo de cuando
  • INTRO (JUNTO CON LA ARMÓNICA):
    1|---------------------------|
    2|---------------------------|
    3|-----5-7-5-4---5-4---------|
    4|-3-7---------7----7-3--3-3-|
    
    Y CASI TODAS LAS PARTES QUE CANTA ES ASÍ:
    1|---------|
    2|---------|
    3|-----5-7-|
    4|-3-7-----|
    
    A VECES VUELVE A HACER EL INTRO JUNTO A LA 
    ARMÓNICA O SIN LA ARMÓNICA.
    SI TIENEN ALGUNA DUDA, COMENTARIO O ARREGLO MANDENME
    UN E-MAIL A gera01@uol.com.ar
  • Introduccion de armonica:
    
    3(3)(4)5-(4)b4-(4)b(3)3
    
    3(3)(4)5-(4)b4-(4)b(3)3
    
    Solo del medio:(5)5(4)4-(5)5(4)4-(4)b(5)(4)b
    
    (5)5(4)4-(5)5(4)4-(4)b(5)(4)b -(5)(4)b-(5)(4)b-(5)(4)b-(5)5(4)b-(5)(4)b
    
    
    sino me ekivoko la armonica de ese tema ta en C(do)
    o en G(sol) por lo menoss suena la cancion
    aguanten los piojoss
  • +
    ¡Colabora con nosotros!
    Envíanos tu versión de esta canción

Letra de Que decis
Base estrofas:
E (y base)
Gira sobre los otros brazos
salta desde algún escalón
brillan al pasar sus ojazos
queda un hueco en el corazón.
Una risa en un pasillo
el hambre de la oscuridad
dulce ácido tu membrillo
tu veneno mejor que el mal
Gira sobre los otros brazos
y el chofer dice: 'terminal'
se te derramaban los ojos
se te derramaban de atrás
Digo, que digo, un buen dia de sol
digo, mi amigo, nada que pensar hoy
E (y base)
Hubo una mujer olvidada
que tu corazón rescató
pero de la crin una espada colgaba
sin jugar ya sos perdedor.
Ella era una sobreviviente
en medio de todo ese mar
en medio de toda esa gente
nunca dejarás de nadar
Digo, que digo, un buen dia de sol
digo, mi amigo, nada que pensar hoy(bis)
La mama dijo: hijo, hay un hechizo
en ese río de sal
pero vos no escuchaste, vos no escuchaste
y el río se dejó tomar(bis)
Digo, que digo, un buen dia de sol
digo, mi amigo, nada que pensar hoy(bis)
Gira sobre los otros brazos(bis)




[Que decis acordes][Que decis chords]
© LaCuerda.net · notícia legal · privacidade · es · en · pt · contato
DINAMICO