Cifras para Violão e Guitarra » P »Platero y Tú » Si tú te vas (Tab)

Si tú te vas
Platero y Tú

Letras, cifras e tablaturas para violão, guitarra, piano, ukulele e baixo

  • --------------------------------------------------------------
    --7-----------------4-----------------------4-----6-7-----7---
    ----7-7-4-0------------------0-4-4-4--0-5-5---5-------7-7-----
    -------------0-2-2---2-2-------------------------------------
    
    
    Intro tipo reggea:A F#m C#m D A E (enlazando)
    
    A
      Nena, hasta aquí hemos llegado
    F#m
      Puedes hacer las maletas
    C#m           D                A
      Y coge las cosas que te regalé.
    
    (distorsión)
    
    A
      Yo ya no sigo tu juego
    F#m
    
  •       [C] [G] [Am] [F] [C] [G] [F] [C]
          [C] [G] [Am] [F] [C] [G] [F] [C]
    
          [C]Al cantar me [G]suelo olvidar de [Am]todos los malos momen[F]tos;
          [C]convertir [G]en vir[F]tud de[C]fectos
          [C]Desterrar la [G]vulgaridad [Am]aunque sólo sea un mo[F]mento
          [C]y sentir [G]que no [F]estamos [C]muertos.
    
          [F]No es placer: es [G]necesidad. Es [Am]viento es [G]lluvia y es [F]fuego
          [C]derramar [G]todos [F]mis [C]secretos.
    
          [C]Y busqué en el [G]fondo del mar, en [Am]las montañas y en el [F]cielo
          [C]LA manera de [G]hacer reali[F]dad mis [C]sueños.
          [C]Encontré en [G]el corazón el [Am]mapa de los senti[F]mientos.
          [C]Ya lo ves... [G]no esta[F]ba tan [C]lejos.
    
          [F]No es placer: es [G]necesidad. Es [Am]viento es [G]lluvia y es [F]fuego
          [C]derramar [G]todos [F]mis [C]secretos.
    
          [C]Esnifar los [G]rayos del sol y [Am]desconge[G]lar el [F]cerebro,
    
  • Es el solo de esta canción, sacado del tema Rockin' all over the world,
    de Status Quo, q en realidad los Platero hicieron una versión... ahí va:
    
    ---8--10--11--12--8--10--8------8--12--8--10--8------8--
    ----------------------------10-------------------10-----
    --------------------------------------------------------
    --------------------------------------------------------
    --------------------------------------------------------
    --------------------------------------------------------
    
    
    ---11--8--10--8------8--11--11--10--8------8--12--8--10--
    -----------------10--------------------10----------------
    ---------------------------------------------------------
    ---------------------------------------------------------
    ---------------------------------------------------------
    ---------------------------------------------------------
    
    --8-----8--11--11--11--11--11--8--10--8---9--8--7--5--5--
    ----10---------------------------------------------------
    ------------------------------------------
  • PLATERO Y TU
    Si tú te vas
    La canción está estructurada de forma que leyendola así 
    se puede tocar de principio al final siguiendo la original
    
    
    INTRO:
    
    --------------------------------------------------------------
    --7-----------------4-----------------------4-----6-7-----7---
    ----7-7-4--------------------0-4-4-4--0-5-5---5-------7-7-----
    ----------5---0-2-2---2-2-------------------------------------
    
    Nena hasta aquí..  Puedes hac...
    ------------------------------------------------------
    ---------------------------------------------4--------
    -0-0-0-0----------------------0-4-4-4--0-5-5---5--0---
    -------------------0-2-2-2----------------------------
    
    Parte distorsion:
    
    ----------------------------------------
    ------------4-4-4-4-4-------------------
    --0-0-0-0-0-------------4-4-5-5--0-0-0--
    ----------------------------------------
    
    -----------7--7--7--------------------------------
    -----------------------4--------------------------
    -7-7-6-6-5--5--5---5-7
  • +
    ¡Colabora con nosotros!
    Envíanos tu versión de esta canción

Letra de Si tú te vas
Nena, hasta aquí hemos llegado
Puedes hacer las maletas
Y coge las cosas que te regalé.
(distorsión)
Yo ya no sigo tu juego
un caramelo un castigo
coge tus cosas y vete de aquí
quise seguir tu camino, pero no era tan liso
y he tropezado con otra mujer
Ella esta gorda y es fea, es sordomuda y cogea
pero en la cama se lo hace muy bien
quise seguir tu camino, pero no era tan liso
y he tropezado con otra mujer
Ella esta gorda y es fea, es sordomuda y cogea
pero en la cama se lo hace muy bien
Si tú te vas,
Nena no imaginas
Lo bien que lo voy a pasar. (bis x4)(la última sin E final)
Si te vas, si te vas,
Si te vas y me dejas
Ella y yo bailaremos
Rocking all over the World.
Si te vas, si te vas,
Si te vas, si te vas
Si te vas y me dejas
Ella y yo bailaremos
Rocking all over the World.
(Sigue igual hasta el final)




[Si tú te vas acordes][Si tú te vas chords]
© LaCuerda.net · notícia legal · privacidade · es · en · pt · contato
DINAMICO