Cifras para Violão e Guitarra » R »Radio Futura » Veneno en la Piel (Tab)

Veneno en la Piel
Radio Futura

Letras, cifras e tablaturas para violão, guitarra, piano, ukulele e baixo

  • A7                  Dm
    Dicen que tienes veneno en la piel
    A7                     Dm 
    y que estas hecha de plastico fino
    A7                   Dm   
    dicen que tienes un tacto divino
    A7                   Dm   
    y quien te toca se queda con el.
    
    1)
    Y si esta noche quieres ir a bailar
    vete poniendo el disfraz de pecadora
    pero tendras que estar lista en media hora
    porque si no, no te paso a buscar.
    
    1)
    Pero primero quieres ir a bailar
    y me sugieres que te lleve a un sitio claro
    a er si aceptan la cartilla del paro
    porque si no lo tendremos que robar.
    
  • Introducción: A Dm A Dm A
                       Dm             A
    Dicen que tienes veneno en la piel
                            Dm             A
    y es que estás hecha de plástico fino.
                        Dm           A
    Dicen que tienes un tacto divino
                       Dm           A
    y quien te toca se queda con él.
                            Dm          A
    Y si esta noche quieres ir a bailar
                        Dm               A
    vete poniendo el disfraz de pecadora,
                           Dm                  A
    pero tendrás que estar lista en media hora
                           Dm             A
    por que si no yo no te paso a buscar.
                         Dm         A
    Pero primero quieres ir a cenar
                         Dm                    A
    
  • e-------------------------------------------
    B-------------------------------------------
    G---------------------------------7-6-------
    D-----------5-7-5---------------------------
    A-5-4-5-7-8-------8-7-5-4-5-5-7-8-----7-5-7-
    E-------------------------------------------
    
    
    
    e-----------------------------5-------------
    B---------6-5-------8-6-5-6-8---8-6-5-------
    G-7-----------7-6-7-------------------7-6-7-
    D---7-5-------------------------------------
    A-------8-----------------------------------
    E-------------------------------------------
  • e-----------------------------------------------------
    B------------------------------2*3-3-2-----3----------
    G---------0-2-0-----------------------2-0-2-2-0-------
    D--0-0-2-3-----3-2-0--0---0-2-3----------------3------
    A---4----------------4--------------------------------
    E-----------------------------------------------------
    
    e---0*1-1-0-----3-1-0-1--3-5-3-1-0--------------------
    B----------3-2-3------------------3-2-3---------------
    G-----------------------------------------------------
    D-----------------------------------------------------
    A-----------------------------------------------------
    E-----------------------------------------------------
    
    
    
    Este es el intro de la rola y el bridge, lo mando porque
    el que estaba no es correcto y estaba bien cucho.
    Saludos y si quieren cualquier tablatura de lo que sea,
    en inglés o español, aquí está su Dios
    federico_becerra@hotmail.com
  •   G|-----------------------------------| x3
      D|-----------------------------------|
      A|---0--3-3--5--3-3--0-0--3-3--5-----|
      E|-------------------------------3-3-|
    
       Intro Dicen que tienes veneno en la piel...
    
    
      G|---------------------------------------------------| x2
      D|--------7-7-------------------------7-7------------|
      A|--0---7-------5--5--3-3---0-0-----7------5-5-------|
      E|----------------------------------------------3-3--|
    
       y si esta noche quieres ir a bailar...
    
    
      G|---------------------------------------------------| x2
      D|--------7-7-------------------------7-7------------|
      A|--0---7-------5--5--3-3---0-0-----7------5-5-------|
      E|----------------------------------------------3-3--|
    
       pero primero quieres ir a cenar ...
    
    
      G|-----------------------------------| x2
      D|-----------------------------------|
      A|---0--3-3--5--3-3--0-0--3-3--5-----|
      E|-------------------------------3-3-|
    
       Solo de guitarra
    
    
      G|----------------------------------------
  • +
    ¡Colabora con nosotros!
    Envíanos tu versión de esta canción

Letra de Veneno en la Piel
Dicen que tienes veneno en la piel
y que estas hecha de plastico fino
dicen que tienes un tacto divino
y quien te toca se queda con el.
1)
Y si esta noche quieres ir a bailar
vete poniendo el disfraz de pecadora
pero tendras que estar lista en media hora
porque si no, no te paso a buscar.
1)
Pero primero quieres ir a bailar
y me sugieres que te lleve a un sitio claro
a er si aceptan la cartilla del paro
porque si no lo tendremos que robar.
1)
Yo voy haciendome la cuenta de cabeza
y tu prodigas tu sonrisa con esmero
y te dedicas a insultar al camarero
y me salpicas con espuma de cerveza.
1)
Y aqui te espero en la barra del bar
mientras que tu vas haciendo discoteca
como te pases te lo advierto mu~eca
que esta vez no te voy a rescatar.
Tu crees que eres una bruja consumada
y lo que pasa es que estas intoxicada
y eso que dices que ya no tomas nada
pero me dicen por ahi que si, que si.




[Veneno en la Piel acordes][Veneno en la Piel chords]
© LaCuerda.net · notícia legal · privacidade · es · en · pt · contato
DINAMICO