Cifras para Violão e Guitarra » R »Rafaga » Mentirosa (Tab)

Mentirosa
Rafaga

Letras, cifras e tablaturas para violão, guitarra, piano, ukulele e baixo

  • Fm-Fm-D#-Fm-Fm
    
    Fm-Fm-Fm-E-D#
    
    eso eran las intervenciones y cortes antes de empezar todo el cumbion
    
    D# - Fm
    
    D# - G#-Gm (creo)- Fm
    
    en todo caso en esa parte las intervenciones son de bajo,
    por lo q no importa hacer el acorde completo
    
    C-C-D-E-F Fm
    
    
    
    Fm
    No vuelvas más ya no te quiero ver
                                      D#
    
  • Rafaga - Mentirosa
    Tablatura para Bajo por Peraka
    
    Intro
                                  Aplausos....               Rafaga...
    E|------------1-----1-----1-|-----------1-1-----1-1------1-1-1-1-----
    A|--3-3-5-------3-----3-----|-------------------------------------6--
    D|--------2-------3-----3---|---------------1------------------------
    G|--------------------------|----------------------------------------
    
    
    E|---------------1-----1------------------------------------------
    A|--6-----6--------3-----3----6----6-------------------3-3--5-----
    D|----8-----8--------3-----3----8----8-----6-6-5-5--3---------2-3-
    G|------8-----8-------------------8----8--------------------------
    
    Estrofa
    No vuelvas mas...
         x5      x4       x2       x2
    E|-1-----|--------|--------|--4-----|-----------------------
    A|---3---|--6-----|--4-----|----6---|-6------6--6-7--7-8----
    D|-----3-|----8---|----6---|------6-|---8-------------------
    G|-------|------8-|------6-|--------|-----8-----------------
    
         x5      x4     
  • +
    ¡Colabora con nosotros!
    Envíanos tu versión de esta canción

Letra de Mentirosa
eso eran las intervenciones y cortes antes de empezar todo el cumbion
en todo caso en esa parte las intervenciones son de bajo,
por lo q no importa hacer el acorde completo
No vuelvas más ya no te quiero ver
he sufrido tanto por tú querer mentirosa
mentirosa, no vuelvas más
nunca más
Hoy tiene dueña mi corazón
no creo más en tú falso amor mentirosa
mentirosa, novuelvas más aquí
nunca más a mis brazos
Mentias cuando me decias
que yo era solo para tí
mentias cuando me decias
que sin mi amor no eras feliz
Mentias de mi te reias
y te burlabas de mi gran amor
mentias y yo te creia
me destrosaste el corazón
con tus mentiras
El resto es deducible
Y el final final son notas no acordes cromaticas
Fin, agradecer con buenas calificaciones no cuesta nada,
xq este temon merece una buena transcripcion en esta gran pagina
Cualquier duda: diego_mora85@hotmail.com




[Mentirosa acordes][Mentirosa chords]
© LaCuerda.net · notícia legal · privacidade · es · en · pt · contato
DINAMICO