Cifras para Violão e Guitarra » R »Rata Blanca » Mujer Amante (Tab)

Mujer Amante
Rata Blanca

Letras, cifras e tablaturas para violão, guitarra, piano, ukulele e baixo

  • INTRO: LAm-SOL-LAm-SOL-LAm-DO-SOL-LAm-DO-SOL-FA-REm-LAm
    
    LAm                                     SOL
    Siento el calor de toda tu piel en mi cuerpo otra vez
    LAm                DO                 SOL
    Estrella fugaz enciende mi ser, misteriosa mujer
    FA                              LAm
    Con tu amor sensual, cuanto me das
                        SOL  REm  DO   
    Haz que mi sueño sea una verdad
                FA                            LAm
    Dame tu alma hoy, haz el ritual
                      SOL       REm   MI
    Llévame al mundo donde pueda soñar
    
    LAm   DO                  SOL                LAm
    Uuuhh Debo saber si es verdad que en algún lado estas
                  DO      SOL        LAm
    Voy a buscar una señal, una canción
    LAm   DO                  SOL           LAm
    
  • G  Em  Bm  G  D
    
     Bm                                     A
    Siento el calor de toda tu piel en mi cuerpo otra vez
        Bm                 G        D         A
    Estrella fugaz que enciende mi sed misteriosa mujer
             G                     Bm
    Por tu amor sensual cunto me ds?
                 A    Em   D
    Haz que mi sueo sea una verdad
          G                        Bm
    Dame tu alma hoy, hacia el ritual
                A     Em     F#
    Llevame al mundo donde pueda soar
    
    Bm   D                   A             Bm
    Uh, debo saber si es verdad, en algn lado ests
    Bm           D      A            Bm
    Voy a buscar una seal, una cancin
    Bm   D                   A             Bm
    
  • e|---0--------0-------0-------0------0-------0---0------------------------|
    B|---5----5--------5-------5------5-------5------5------------------------|
    G|---2------2----2---2---2---2--2---2---2---2----2------------------------|
    D|---2-------------------------------------------2------------------------|
    A|---0-------------------------------------------0------------------------|
    E|------------------------------------------------------------------------|
    
    e|-------4--------------------------------------------------------0-0-0---|
    B|---5h6---6-5-3-6-5-3h5p3---5-3-----3-2-----2--------------------1-1-1---|
    G|-------------------------6-----6-3-----3-2---3-2-0-3-2-0-3------2-2-2---|
    D|----------------------------------------------------------------2-2-2---|
    A|----------------------------------------------------------------0-0-0---|
    E|----------------------------------------------------------------0-0-0---|
    
    e|--------------------------------------------|
    B|------5-6-5h6p5-----------------------------|
    G|-5-7-------------7-5-4--4-5-7-5-4-5-4h5p4/2-|
    D|--------------------------------------------|
    A|--------------------------------------------|
    E|--------------------------------------------|
    
  •              G                  Em                    Bm
    e||--------------------|-------------------|---------------------|
    B||--------------------|-------------------|---------------------|
    G||--------------------|-------------------|---------------------|
    D||--12----------------|--9----------------|---------------------|
    A||--10----------------|--7----------------|---------------------|
    E||--------------------|-------------------|--7------10----------|
    
    
               G                    D                      D
    ----------------------|--------------------|------------------------||
    ----------------------|--------------------|------------------------||
    ----------------------|--------------------|------------------------||
    ----------------------|--------------------|--------7--7/-9----7----||
    --10----------9---7---|--9--------------2--|--7--9--5--5/-7----5----||
    ----------------------|-----------------0--|--5--7------------------||
    
    
    
     Bm                                     A
    
  • e---------0--0--0--0----0-------4---------------------------------------------------
    B----------55-55-55-55--5---5-6---6-5-3-6-5-3---5-3------3-2------2-----------------
    G---------------------------------------------6------6-3------3-2----3-2-0-3-2-0-3--
    D-----------------------------------------------------------------------------------
    A---7-------------------------------------------------------------------------------
    E-5---------------------------------------------------------------------------------
    
    
      LA5
    e--0-0-0-
    B--0-0-0-
    G--5-5-5-
    D--5-5-5-
    A--0-0-0-
    E--------
    
    e-----0/1\0---------------------------------------------------------
    B-1-3-------3-1-0--0-1-3-1-0-1\0------------------------------------
    G--------------------------------2--0-------------------------------
    D-------------------------------------3-2--2-3-0--3-2-0-------------
    
  • e-------------------------------------------------
    B-5-6-8-6-5---6-5-----5---------------------------
    G-----------7-----7-5---7-5---7-5-----------------
    D---------------------------9-----9-7-6-9---------
    A-----------------------------------------7-(7)-7-
    E-------------------------------------------------
    
    e--------------------------------------------------------------------------------
    B--------------------------------------------------------------------------------
    G-------9-10-9-------------------------------------------------------------------
    D-10-12--------12-10-9-----9-10-12-10-9-10-9-7-----5-----------5-----------------
    A----------------------------------------------------8-7---7-8---8-7-5---3-2-5---
    E------------------------------------------------------------------------------3-
    
    Entra el violín con acompañamiento de LAm SOL LAm, haciendo:
    
    e-------------------------------------------------- \
    B---10--10-10-10--12-13-15--8-8-8--13-12-12-10-----
    G-9------------------------------------------------   Violín
    D--------------------------------------------------
    
  • Introducción:
    
        G    Em                    Bm
    G|-----|-----|------------------------------------|
    D|--5--|--2--|------------------------------------|
    A|-----|-----|-2-2-2-2--2-2-2-2--2-2-2-2--2-2-2-2-|
    E|-----|-----|------------------------------------|
    
    Primer canto:
    
                       Bm                                   A
    G|------------------------------------|------------------------------------|
    D|------------------------------------|------------------------------------|
    A|-2-2-2-2--2-2-2-2--2-2-2-2--2-2-2-2-|-0-0-0-0--0-0-0-0--0-0-0-0--0-0-0-0-|
    E|------------------------------------|------------------------------------|
    
              Bm                 G                           A
    G|------------------|------------------|------------------------------------|
    D|------------------|------------------|------------------------------------|
    A|-2-2-2-2--2-2-2-2-|------------------|-0-0-0-0--0-0-0-0--0-0-0-0--0-0-0-0-|
    E|------------------|-3-3-3-3--3-3-3-3-|------
  • Notas para armónica cromática en C (12 celdas)
    
    Aclaración: las notas sopladas van solas, las aspiradas tienen el símbolo (-)
    y el símbolo (*) significa que deben presionar el botón mientras tocan la nota
    
    ----------------------------------------------------------------------
    
    Intro: G  E - B   D   G   F#  E  F#  -  E   A   B  D  E  D
           3  2   -4  -5  7  -6*  6  -6*    2   -3 -4 -5  6 -5
    
    -6*   6  -5 -5   -4 -5 -5 -4 -5   -5 -5  6  5*  -4  -3
    Siento el calor  de toda tu piel  en mi cuerpo otra vez.
    -4 -5 6 -5 -6*  -6* -6* 6  -5 -5   -4 -5 6 -5 -6* 6
    Estrella fugaz,  enciende mi sed,  misteriosa mujer.
    -5    5* -4 -5  6    6 -5 5* -5 5* -4  -6* -6* -6* -6* 6  5* -5  -6* -6* 6 -6*
    Con tu amor sensual,  cuánto me das,   haz que mi sueño   sea     una   verdad.
    -5 5* -4  -5  6   6 -5 5* -5 5* -4  -6* -6* -6* -6* 6  5* -5  -6* 6 -5 -6*
    Dame tu alma hoy,  haz el ritual,   llévame al mundo   donde  pueda soñar.
    
    
    -8      -6* 7 -6* -7  7   -6* 6   5* -5 6  6   -5 -5
    ¡Uhh...! De
  • hola aqui les dejo una buena cancion de rata blanca, es para
    teclados o flauta pero la verdad en piano no la he probado
    pero en flauta si queda bien.
    
    Mujer amante (version acustica)
    
    Intro:     (si no la tocan en acustica no se toca el intro)
    mi la la la la si do re
    sol sol sol la si do la (2veces.En la segunda queda hasta "do")
    
    mi mi fa sol fa mi re do
    si si do re re do
    mi mi fa sol fa mi re do
    si si do re do, re mi
    
    Estrofas:
    Al amanecer...
    mi re do do
    la do do la do
    do do re si la sol
    la do re do re
    do mi mi mi mi re do do
    do do mi mi do mi re
    
    Con tu amor...
    do si la do re
    re do si do si la
    mi mi mi mi re
    si do mi mi re mi
    do si la do re
    re do si do si la
    mi mi mi mi re, si do mi
    re do si mi
    
    Coro:
    la, mi fa mi sol fa mi re
    si do re re, do do
    la sol mi la, sol fa mi sol
    re do si la    (2 veces)
    
    Extructura
    intro
    las 2 estrofas
    coro
    intro
    las 2 estrfas
    coro
    la 2° estrofa
    coro
    intro    ay termina "ojo" si en una linea ay "fa"
    todas las  notas para arriba son agudas y si en
    una ay 
  • +
    ¡Colabora con nosotros!
    Envíanos tu versión de esta canción
  • Tutorial
    HD
    Tocar Mujer Amante - Rata Blanca en acordes mas bajos
    7:50
  • Tutorial
    HD
    COMO TOCAR MUJER AMANTE EN GUITARRA ELECTRICA / RATA BLANCA TUTORIAL PARTE 1 POR MARIO FREIRIA TCDG
    1:31
  • Tutorial
    Mujer Amante - Rata blanca - Como tocar en guitarra acustica acordes
    3:34

Letra de Mujer Amante
Siento el calor de toda tu piel en mi cuerpo otra vez
Estrella fugaz que enciende mi sed misteriosa mujer
Por tu amor sensual cunto me ds?
Haz que mi sueo sea una verdad
Dame tu alma hoy, hacia el ritual
Llevame al mundo donde pueda soar
Uh, debo saber si es verdad, en algn lado ests
Voy a buscar una seal, una cancin
Uh, debo saber si es verdad, en algn lado ests
Al amanecer tu imagen se va, misteriosa mujer
Dejaste en m, lujuria total, hermosa, sensual
Corazn sin Dios dame un lugar
En ese mundo tibio casi irreal
Te ver buscar una seal
En aquel camino por el que vas.
Uh, debo saber si es verdad, en algn lado ests
Voy a buscar una seal, una cancin
Uh, debo saber si es verdad, en algn lado ests
Tu presencia marc en mi vida el amor, lo s
Es dificil pensar, el vivir ya sin vos.
Corazn sin Dios dame un lugar
En ese mundo tibio casi irreal
Uh, debo saber si es verdad, en algn lado ests
Voy a buscar una seal, una cancin
Uh, debo saber si es verdad, en algn lado ests




[Mujer Amante acordes][Mujer Amante chords]
© LaCuerda.net · notícia legal · privacidade · es · en · pt · contato
DINAMICO