Cifras para Violão e Guitarra » R »Reik » Creo en tí (Tab)

Creo en tí
Reik

Letras, cifras e tablaturas para violão, guitarra, piano, ukulele e baixo

  • INTRO :A-Em-G-D
    
    Estrofa:
    A                    Em
      ya no importa cada noche que espere
    G                 D
      Cada calle o laberinto que cruce
    A                         Em
      Por qué el cielo ha conspirado a mi favor
    G                      D
      Y a un segundo de rendirme te encontré
    Pre coro:
    Bm        G       A
    Piel con piel mi corazón se me desarma
    Bm        G        A
    Me haces bien enciendes luces en mi alma
    
    Coro:
    D
    Creo en ti
    
  • Bb-Fm-G#-D#
    Estrofa:
    Bb                    Fm
      ya no importa cada noche que espere
    G#                 D#
      Cada calle o laberinto que cruce
    Bb                         Fm
      Por qué el cielo ha conspirado a mi favor
    G#                      D#
      Y a un segundo de rendirme te encontré
    Pre coro:
    Cm        G#      Bb
    Piel con piel mi corazón se me desarma
    Cm       G#       Bb
    Me haces bien enciendes luces en mi alma
    Coro:
    D#
    Creo en ti
          Bb
    Y en este amor
    
  • INTRO: E-Bm-D-A
    
    E                    Bm
      Ya no importa cada noche que espere
    D                 A
      Cada calle o laberinto que cruce
    E                         Bm
      Por qué el cielo ha conspirado a mi favor
    D                      A
      Y a un segundo de rendirme te encontré
    
    F#m       D       E
    Piel con piel mi corazón se me desarma
    F#m       D        E
    Me haces bien enciendes luces en mi alma
    
    ESTRIBILLO
    A
    Creo en ti
           E
    
  • 1.-----------------------------------------------
    2.-------5--------4---------------5--------4-----
    3.----------4------------------4-----4-----------
    4.----6--------6------------7-----------7--------
    5.-7---------------------------------------------
    6.-----------------------------------------------
    
    1.--------------------------------------------------
    2.-------5--------5---------------5--------------5--
    3.----4-----4------------------4-----------4----4---
    4.-4-----------4------------6-----------4------6----
    5.-----------------------------------6--------7-----
    6.--------------------------------------------------
    
    
    B-F#m-A-E
    Estrofa:
    B                     F#m
      ya no importa cada noche que espere
    A                   E
    
  •     B   F#m   A   E
    1|--7----2----6---x-----
    2|--7----2----6---x-----
    3|--8----2----6---1-----
    4|--9----4----7---2-----
    5|--9----4----7---2-----
    6|--7----2----5---0-----
    
             Ya   no  importa   cada   noche  que  espere,
         B                              F#m
    1|--------------------------------|------------------------------
    2|---------------------------------------------------------------
    3|-------8-----8---------8-----8---------3-----3--------3-----3--
    4|---------9---------------9---------------4--------------4------
    5|-----9-----9---------9-----9---------4-----4--------4-----4----
    6|---7---------------7------------|--2--------------2------------
    
             cada     calle  o   laberinto  que  cruce,
         A                            E
    1|-----------------------------|---------------------------------
    
  • 1-Eb
    2-Bb
    3-Gb
    4-Db
    5-Ab
    6-Eb
    
    
                                B   F#m   A   E
                            1|--7----2----6---0-----
                            2|--7----2----6---0-----
                            3|--8----2----6---1-----
                            4|--9----4----7---2-----
                            5|--9----4----7---2-----
                            6|--7----2----5---0-----
    
             Ya   no  importa   cada   noche  que  espere,
         B                              F#m
    1|--------------------------------|------------------------------
    2|---------------------------------------------------------------
    
  •     1.--------------------------------------------------
        2.--------------------------------------------------
        3.----------8--------8---------------8--------8-----
        4.-------------9------------------------9-----------
        5.-------9--------9---------------9--------9--------
        6.----7------------------------7--------------------
    
    
    
        1.--------------------------------------------------
        2.--------------------------------------------------
        3.----------2--------2----------------2--------2----
        4.-------------4-------------------------4----------
        5.-------4--------4----------------4--------4-------
        6.----2-------------------------2-------------------
    
    
    
        1.--------------------------------------------------
        2.--------------------------------------------------
    
  • +
    ¡Colabora con nosotros!
    Envíanos tu versión de esta canción
  • Tutorial
    HD
    Creo en ti - Reik
    1:50
  • Tutorial
    Reik - Aprende con Julio -- (Creo En Ti)
    19:04
  • Tutorial
    HD
    COMO TOCAR "CREO EN TI" DE REIK EN GUITARRA
    12:35
  • Tutorial
    HD
    Como tocar Creo en ti de Reik en Guitarra (HD)
    Tutorial
    7:17
  • Tutorial
    HD
    Creo en ti - Reik - Como tocar en guitarra
    3:06

Letra de Creo en tí
Estrofa:
ya no importa cada noche que espere
Cada calle o laberinto que cruce
Por qué el cielo ha conspirado a mi favor
Y a un segundo de rendirme te encontré
Pre coro:
Piel con piel mi corazón se me desarma
Me haces bien enciendes luces en mi alma
Creo en ti
Y en este amor
Que me vuelve indestructible
Que detuvo mi caída libre
Creo en ti
Y mi dolor
Se quedó a kilómetros a tras
Mis fantasmas hoy
Por fin están en paz.
Estrofa:
El pasado es un mal sueño que acabo
Un incendio que en tus brazos se apago
Cuando estaba medio pasó de caer
Mi silencio si encontraron con tu voz.
Pre coro:
Te segui y rescribiste mi futuro
Es aquí mi único lugar seguro
Se repite el mismo coro.
final:




[Creo en tí acordes][Creo en tí chords]
© LaCuerda.net · notícia legal · privacidade · es · en · pt · contato
DINAMICO