Cifras para Violão e Guitarra » R »Roberto Carlos » un gato en la obscuridad (Tab)

un gato en la obscuridad
Roberto Carlos

Letras, cifras e tablaturas para violão, guitarra, piano, ukulele e baixo

  • D                                A7
    Cuando era un chiquillo que alegría;
                  Em            D
    Jugaba a la guerra noche y día,
                    D7          G
    Saltando una verja verte a ti
       Em        D          A7          D
    y así en tus ojos algo nuevo descubrír.
    
     D                         A7
    Las rosas decían que eras mía;
                    Em       D
    Y un gato me hacia compañía,
                    D7         G      Em
    Desde que me dejaste yo no se porque
           D            A7            D
    la ventana es mas grande sin tu amor.
    
    D                            Em
    El gato que esta en nuestro cielo;
    
  •     C            G             G             C
    e |-----------------------------------------------------------------|
    b |-------1-------1-------0-------0-------0-------0-------1-------1-|
    g |-----0-------0-------0-------0-------0-------0-------0-------0---|
    D |---2-------2-------0-------0-------0-------0-------2-------2-----|
    A |-3---------------2---------------5---------------3---------------|
    E |-----------------------------------------------------------------|
    
    
    C                               G
    Cuando era un chiquillo, que alegría
                    G7           C
    jugando a la guerra, noche y día
                    C7          F     Fm
    Saltando una verja  verte a ti y así
           C         G7         C
    en tus ojos algo nuevo descubrir
    
    C                         G
    Las rosas decían que eras mía
    
  •        LA segunda estrofa)
    
    RE  LA RE
    
    RE                                 LA
      Cuando era un chiquillo que alegría;
                  MIm            RE
    Jugando a la guerra noche y día,
                   RE7          SOL
    Saltando una verja verte a ti
       SOLm        RE        LA         RE
    y así en tus ojos algo nuevo descubrir.
    
    RE                           LA
      Las rosas decían que eras mía;
                    MIm       RE
    Y un gato me hacía compañía,
                    RE7         SOL   SOLm
    Desde que me dejaste yo no sé porque
          RE            LA           RE
    
  •     D                                              A
    e------------------------------------------------------------------
    B---------3-----3--------3-------3--------3-----3--------2------2--
    G-------2-----2--------2-------2--------2-----2--------2------2----
    D-----4-----4--------4-------4--------4-----4--------2------2------
    A---5--------------5----------------5--------------0---------------
    E------------------------------------------------------------------
                         D
    e-------------------------------------
    B---------2------2---------3-----3----
    G-------2------2---------2-----2------
    D-----2------2---------4-----4--------
    A---0----------------5----------------
    E-------------------------------------
    
                      D               A
    Cuando era un chiquillo, que alegría,
                    Em            D
    jugando a la guerra, noche y día,
                  D7            G       Gm
    
  • +
    ¡Colabora con nosotros!
    Envíanos tu versión de esta canción

Letra de un gato en la obscuridad
Cuando era un chiquillo que alegría;
Jugaba a la guerra noche y día,
Saltando una verja verte a ti
y así en tus ojos algo nuevo descubrír.
Las rosas decían que eras mía;
Y un gato me hacia compañía,
Desde que me dejaste yo no se porque
la ventana es mas grande sin tu amor.
El gato que esta en nuestro cielo;
No va a volver a casa si no estas,
No sabes mi amor que noche bella
presiento que tu estas en esa estrella.
El gato que esta triste y azul;
Nunca se olvida que fuiste mía,
Más se que sabrá de mi sufrir;
Porque en mis ojos una lagrima hay.
Querida,querida vida mía;
Reflejo de luna que reía,
Si amar es errado culpa mía te ame;
En el fondo que es la vida no lo se.
El gato que esta en nuestro cielo;
No va a volver a casa si no estas,
No sabes mi amor que noche bella
presiento que tu estas en esa estrella.
El gato que esta triste y azul;
Nunca se olvida que fuiste mía,
Más siempre seras en mi mirar,
Lagrimas claras de primavera.
El gato que esta en la oscuridad
sabe que en mi alma una lagrima hay.
NO OLVIDEN LA SEGUNDA PARTE SUBE UN TONO




[un gato en la obscuridad acordes][un gato en la obscuridad chords]
© LaCuerda.net · notícia legal · privacidade · es · en · pt · contato
DINAMICO