Cifras para Violão e Guitarra » S »Savia Andina » A los bosques (Tab)

A los bosques
Savia Andina

Letras, cifras e tablaturas para violão, guitarra, piano, ukulele e baixo

  • LAm                      DO
    A los bosques yo me interno
                             SOL7
    A Hechar mis penas llorando
                           DO
    Y los bosques me contestan
               MI7              LAm 
    Lo que has hecho estas pagando
    SOL7                    DO
    Y los bosques me contestan 
               MI7              LAm 
    Lo que has hecho estas pagando
    
    
    LAm                         DO
    Ay como quieres que tan pronto 
                               SOL7
    olvide el mal que me has hecho
                               DO
    de rato en rato me toco el pecho
    
  •                          A Los Bosques
    
    
    e|-0-3-2-3-2-3-5-7--7-10-9-12-10-9-10-5--------|
    B|---------------------------------------------|
    G|---------------------------------------------|
    D|---------------------------------------------|
    A|---------------------------------------------|
    E|---------------------------------------------|
    
    e|-3-3-5-4-5-3-3-4-5-7-10-10-9-7-5-4-5-2-3-----|
    B|---------------------------------------------|
    G|---------------------------------------------|
    D|---------------------------------------------|
    A|---------------------------------------------|
    E|---------------------------------------------|
    
    
    REm                      FA
    A los bosques yo me interno
    
  •   REm            FA                   DO
    e|---1-0-1-0-1-3-3/5-|---8-7-10-8-7-8-----------|
    B|-3-----------------|10--------------8---------|
    G|-------------------|--------------------------|
    D|-------------------|--------------------------|
    A|-------------------|--------------------------|
    E|-------------------|--------------------------|
    
       DO            FA         DO       REm     x2
    e|---3-2-3-0-1-3-3/5-|8-8-7-5-------------------|
    B|-5-----------------|--------8-7-8-5-----------|
    G|-------------------|----------------7---------|
    D|-------------------|--------------------------|
    A|-------------------|--------------------------|
    E|-------------------|--------------------------|
    
       SIb                 FA x2
    e|-10-10-9-10-9-10-8-7----|
    B|---------------------10-|
    G|------------------------|
    
  • +
    ¡Colabora con nosotros!
    Envíanos tu versión de esta canción

Letra de A los bosques
A los bosques yo me interno
A Hechar mis penas llorando
Y los bosques me contestan
Lo que has hecho estas pagando
Y los bosques me contestan
Lo que has hecho estas pagando
Ay como quieres que tan pronto
olvide el mal que me has hecho
de rato en rato me toco el pecho
la herida me duele mas y mas
de rato en rato me toco el pecho
la herida me duele mas y mas.
En la distancia te quiero mas
En la distancia te adoro mas
Perdonaría cualquier ofensa
Pero olvidarte jamas jamas
Ante cualquier duda manden un e-mail
percycris@uole.com
Transcripción de Sejas cristian Percy
en caso de copiar estos acordes citar e-mail y trascriptor




[A los bosques acordes][A los bosques chords]
© LaCuerda.net · notícia legal · privacidade · es · en · pt · contato
DINAMICO